Nickelback - If Everyone Cared Chords & Tabs

 

If Everyone Cared Chords & Tabs

Nickelback Chords & Tabs

Version: 4 Type: Chords

If Everyone Cared Chords

   
Nickelback - If Everyone Cared

(edited on 16/04/07, thnx to IdijoSLO i did some changes to make it sound better..i
this shld be it cause i tried playing in Em and Dm to see if it sounded right..added
solo bit also ;) )

last edited on 13/03/08, changed riff to dropped D, it's the correct and easier way to 
the main riff


Intro: F#m - A - E - F#m      x2

e|---------------------------------------------------------------------|
B|---------------------------------------------------------------------|
G|----------1--2-------------4-----------------------------------1-----|
D|------4----------------7------7---------2---4----4---------4------4--|
A|----4---4------------7---7------------2---2----4---------4---4-------|
D|--4----------------7----------------2------------------4-------------|


Verse1:
                    F#m                 A
From underneath the trees, we watch the sky
          E              F#
Confusing stars for satellites
        F#m                   A
I never dreamed that you'd be mine
            E                 F#
But here we are, we're here tonight


Prechorus:
        A    E       F#
Singing Amen I, I'm alive
        A    E       F#
Singing Amen I, I'm alive


[CHORUS]
            D                A
If everyone cared and nobody cried,
            E                F#
If everyone loved and nobody lied,
            D                          A
If everyone shared and swallowed their pride,
             E
We'd see the day, when nobody died


And I'm singing
F#m    A       E       F#m
A-Amen I, Amen I, I'm alive
     F#m     A       E       F#m
Amen I, Amen I, Amen I, I'm alive


Verse2:
           F#m         A
And in the air the fireflies
         E            F#
Our only light in paradise
               F#m             A
We'll show the world they were wrong
               E            F#
And teach them all to sing along


Prechorus:
        A    E       F#
Singing Amen I, I'm alive (I'm alive)
        A    E       F#
Singing Amen I, I'm alive

[ Tab from: http://www.guitartabs.cc/tabs/n/nickelback/if_everyone_cared_crd_ver_4.html ]
[CHORUS]
            D                A
If everyone cared and nobody cried,
            E                F#
If everyone loved and nobody lied,
            D                          A
If everyone shared and swallowed their pride,
             E                F#m
We'd see the day, when nobody died

            D                A
If everyone cared and nobody cried,
            E                F#
If everyone loved and nobody lied,
            D                          A
If everyone shared and swallowed their pride,
             E                F#m
We'd see the day, when nobody died


Solo: D   -   A   -    E   -   F#
                          (when nobody died)
      D   -   A   -    E


E|----------------------------------------------------------------|
B|------------2--------------2---------------5-s7--7-s10----------|
G|-----2--4-----------2--4------4--2--4-s6-6-------------------14-|
D|--4-------------4---------------------------------------s16-----|
A|----------------------------------------------------------------|
D|----------------------------------------------------------------|

E|---------------------------------|
B|----14--------------14-----------|
G|16----------14--16--------(16)~--|
D|--------16-----------------------|
A|---------------------------------|
D|---------------------------------|


Verse3:
          F#m             A
And as we lie beneath the stars,
      E                 F#
We realize how small we are,
              F#m               A
If they could love like you and me,
        E                    F#
Imagine what the world could be


[CHORUS]
            D                A
If everyone cared and nobody cried,
            E                F#
If everyone loved and nobody lied,
            D                          A
If everyone shared and swallowed their pride,
             E                F#m
We'd see the day, when nobody died

            D                A
If everyone cared and nobody cried,
            E                F#
If everyone loved and nobody lied,
            D                          A
If everyone shared and swallowed their pride,
             E                F#m      D
We'd see the day, when nobody died


Outro:
D            A                 E
We'd see the day, we'd see the day
            F#      D
When nobody died
D            A                 E
We'd see the day, we'd see the day
            F#m      D
When nobody died
D            A               E
We'd see the day when nobody died


End on E