Nickelback - How You Remind Me Chords & Tabs

 

How You Remind Me Chords & Tabs

Nickelback Chords & Tabs

Version: 4 Type: Bass Tab 0 ratings
1 star 2 stars 3 stars 4 stars 5 stars
comments

How You Remind Me Bass Tab

   
SONG:  How you remind me
BAND: Nickelback
TUNING: CGCF
INSTRUMENT:  Bass,  chords for lead guitar

| = bar line
\ = slide down

VERSE I: 0:17
   Csus2        Csus2/F      Bbsus2      Bbsus2/Eb    Csus2      
F---------------------------|------------------------|----------------|
C---------------------------|------------------------|----------------|
G---5--5--5--5--------------|--3--3--3--3------------|-5-5-5-5--------|
C---------------5--5--5--5--|-------------3--3--3--3-|---------5-5-5-5|

Bb5         Eb5
------------------------||
------------------------||
3--3--3--3--------------||
------------3--3--3--3--||

CHORUS 0:28
C5          Eb5          Bb5           F5           C5            Eb5
------------------------|--------------------------|------------------------|
------------------------|--------------------------|------------------------|
5--5--5--7--8--8--8--7--|--3--3--3--2--------------|--5--5--5--7--8--8--8--7|
------------------------|--------------5--5--5--5--|------------------------|
[ Tab from: http://www.guitartabs.cc/tabs/n/nickelback/how_you_remind_me_btab_ver_4.html ]
Bb5         F5           C5         Eb5       Bb5           F5
------------------------|--------------------|--------------------------|
------------------------|--------------------|--------------------------|
3--3--3--2--------------|--------------------|--3--3--3--2--------------|
------------5--5--5--5--|--0--0-----3--3-----|--------------5--5--5--3--|

C5          Eb5          Bb5          F5
------------------------|--------------------------|--------------|
------------------------|--------------------------|--------------|
------------------------|--3--3--3--2--------------|--5-----------|
0--0--0--0--3--3--3--2--|--------------5--5--5--5--|--------5--5--|

------------|--------------|-------------------||
------------|--------------|-------------------||
3-----------|--5-----------|--3----------------||
------3--3--|--------5--5--|--------3--3----3--||

VERSE 2  1:01
-------------|--------------|--------------|--------------------|
-------------|--------------|--------------|--------------------|
5------------|--3-----------|--5-----------|--3-----------------|
-------5--5--|--------3--3--|--------5--5--|-----0--3--3--3--3--|

------------|---------------|--------------|-------------------------|
------------|---------------|--------------|-------------------------|
5-----------|--3------------|--5-----------|--3--3--3--3-------------|
------5--5--|---------3--3--|--------5--5--|-------------3--3--3--3--|

VERSE 3  2:36
14-----------|--12-----------|-----------------|--------------------------||
-------12----|---------10----|--12-------------|--------------------------||
-------------|---------------|----------10\----|--3--3--3--3--------------||
-------------|---------------|-----------------|--------------3--3--3--3--||
Comments