Nickelback - Hollywood Chords & Tabs

 

Hollywood Chords & Tabs

Nickelback Chords & Tabs

Version: 1 Type: Tab 0 ratings
1 star 2 stars 3 stars 4 stars 5 stars
comments

Hollywood Tab

   
Song: Hollywood
Band: Nickelback
From: Silver Side Up
By:   Adam Urbz
Mail: pickboy87@cs.com
Tune: Dropped D; Down One Whole Step

Tab Symbols:
b      = bend
( )    = optional note [listen to song to hear when to play it]
x      = muted string
P.M... = palm mute
/      = slide up
\      = slide down
*      = repeat bar
*

  Intro A: (Distortion)
D|---------------------------------------------------------|
A|---------------------------------------------------------|
F|*-------------------------------------------------------*|
C|*-------------------------------------------------------*|
G|--5b-3---5b-3----x-x----5b-3----------3~~-------(3)------|
C|-------------------------------5-7-5-----7-5-7-----------|
  Intro B: (Distortion)
D|---------------------------------------------------------|
A|---------------------------------------------------------|
F|*-------------------------------------------------------*|
C|*-7b-5---7b-5-----------7b-5---------5-5----------------*|
G|--5b-3---5b-3-----------5b-3---5-7-5-3-3-7-5-7-----------|
C|-------------------------------5-7-5-----7-5-7-----------|

  Verses: (Distortion)
D|---------------------------------------------------------|
A|---------------------------------------------------------|
F|*-------------------------------------------------------*|
C|*-7-7-7-5----7-7-7-5----------7-7-7-5---------5-5-------*|
G|--5-5-5-3----5-5-5-3----------5-5-5-3---5-7-5-3-3-7-5-7--|
C|----------------------------------------5-7-5-----7-5-7--|
    P.M...................................................

  Chorus: (Distortion)
D|---------------------------------------------------------|
A|---------------------------------------------------------|
F|*-------------------------------------------------------*|
C|*-7-7-7-5----7-7-7-5----------7-7-7-5---------5-5-------*|
G|--5-5-5-3----5-5-5-3----------5-5-5-3---5-7-5-3-3-7-5-7--|
C|----------------------------------------5-7-5-----7-5-7--|
[ Tab from: http://www.guitartabs.cc/tabs/n/nickelback/hollywood_tab.html ]
  Pre-Solo: (Disotortion)
D|----------------------------------------------------------|
A|----------------------------------------------------------|
F|*--------------------------------------------------------*|
C|*-7-7-7-5----7-7-7-5-------------7-7-7-5-----------------*|
G|--5-5-5-3----5-5-5-3-------------5-5-5-3-------3-3--------|
C|----------------------5-5--5h7-----------5-7-5-----7-5-7--|
                       \With Wah/          \   With Wah  /

  Solo: (Distortion/Wah)
D|----------------------------------------------------------|
A|----------------------------------------------------------|
F|--11-9---11-9---5-5-2-0------11-9---0-2-0-5-5-2-0-2--5----|
C|----------------------------------------------------------|
G|----------------------------------------------------------|
C|----------------------------------------------------------|
		  P.M.....	      P.M.................

D|----------------------------------------------------------|
A|----------------------------------------------------------|
F|--11-9---11-9---2-5-2-0------11-9---0-2-0-5-5-2-0-2--5/---|
C|----------------------------------------------------------|
G|----------------------------------------------------------|
C|----------------------------------------------------------|
		  P.M.....	      P.M.................

D|------------------------------------------------------------------|
A|-/15-13---15-13----16-15-13-15---/15-13---13-15-13-16-16-15-13-15-|
F|------------------------------------------------------------------|
C|------------------------------------------------------------------|
G|------------------------------------------------------------------|
C|------------------------------------------------------------------|
                     P.M.............        P.M....................

D|--------15------------17-------------20-------------------|
A|--15bh-------(15)------------(15)-------------------------|
F|----------------------------------------------------------|
C|----------------------------------------------------------|
G|----------------------------------------------------------|
C|----------------------------------------------------------|

Tab Symbols:
b      = bend
bh     = bend and hold
( )    = optional note [listen to song to hear when to play it]
       = [in solo] play the note that is already bent
x      = muted string
P.M... = palm mute
/      = slide up
\      = slide down
*      = repeat bar
*
Comments