Nickelback - Hero Chords & Tabs

 

Hero Chords & Tabs

Nickelback Chords & Tabs

Version: 4 Type: Tab 0 ratings
1 star 2 stars 3 stars 4 stars 5 stars
comments

Hero Tab

Artist:Chad Kroeger & Josey Scott
Song:Hero
Tuning:Standard
*dunno the drop-d tuning "YET"

Verse/Beginning
4-4-4-4-4-4-|------------|
4-4-4-4-4-4-|------------|
4-4-4-4-4-4-|1-1-1-1-1-1-|  x2 each bar before going
6-6-6-6-6-6-|2-2-2-2-2-2-|     to next bar
6-6-6-6-6-6-|2-2-2-2-2-2-|
4-4-4-4-4-4-|0-0-0-0-0-0-|
                       
Pre-Chorus
------------|------------|----------------|
------------|------------|----------------|
4-4-4-4-4-4-|6-6-6-6-6-6-|----------------| x2 for each 
5-5-5-5-5-5-|7-7-7-7-7-7-|2-2-2-2-2-2-2-2-|  bar as well
5-5-5-5-5-5-|7-7-7-7-7-7-|2-2-2-2-2-2-2-2-|
3-3-3-3-3-3-|5-5-5-5-5-5-|0-0-0-0-0-0-0-0-|
                       

Chorus
0-0-0-0-0-0-|0-0-0-0-0-0-|0-0-0-0-0-0-|
0-0-0-0-0-0-|0-0-0-0-0-0-|0-0-0-0-0-0-|
4-4-4-4-4-4-|6-6-6-6-6-6-|8-8-8-8-8-8-|
5-5-5-5-5-5-|7-7-7-7-7-7-|9-9-9-9-9-9-|
5-5-5-5-5-5-|7-7-7-7-7-7-|9-9-9-9-9-9-|
3-3-3-3-3-3-|5-5-5-5-5-5-|7-7-7-7-7-7-|

------------|------------|------------|
------------|------------|------------|
4-4-4-4-4-4-|6-6-6-6-6-6-|------------|
5-5-5-5-5-5-|7-7-7-7-7-7-|2-2-2-2-2-2-|
5-5-5-5-5-5-|7-7-7-7-7-7-|2-2-2-2-2-2-|
3-3-3-3-3-3-|5-5-5-5-5-5-|0-0-0-0-0-0-|
                       Verse
4-4-4-4-4-4-|------------|
4-4-4-4-4-4-|------------|
4-4-4-4-4-4-|1-1-1-1-1-1-|  x2
6-6-6-6-6-6-|2-2-2-2-2-2-|
6-6-6-6-6-6-|2-2-2-2-2-2-|
4-4-4-4-4-4-|0-0-0-0-0-0-|
                       
Pre-Chorus
------------|------------|------------|
------------|------------|------------|
4-4-4-4-4-4-|6-6-6-6-6-6-|------------|
5-5-5-5-5-5-|7-7-7-7-7-7-|2-2-2-2-2-2-|
5-5-5-5-5-5-|7-7-7-7-7-7-|2-2-2-2-2-2-|
3-3-3-3-3-3-|5-5-5-5-5-5-|0-0-0-0-0-0-|

Chorus
0-0-0-0-0-0-|0-0-0-0-0-0-|0-0-0-0-0-0-|
0-0-0-0-0-0-|0-0-0-0-0-0-|0-0-0-0-0-0-|
4-4-4-4-4-4-|6-6-6-6-6-6-|8-8-8-8-8-8-|
5-5-5-5-5-5-|7-7-7-7-7-7-|9-9-9-9-9-9-|
5-5-5-5-5-5-|7-7-7-7-7-7-|9-9-9-9-9-9-|
3-3-3-3-3-3-|5-5-5-5-5-5-|7-7-7-7-7-7-|
[ Tab from: http://www.guitartabs.cc/tabs/n/nickelback/hero_tab_ver_4.html ]
------------|------------|------------|
------------|------------|------------|
4-4-4-4-4-4-|6-6-6-6-6-6-|------------|
5-5-5-5-5-5-|7-7-7-7-7-7-|2-2-2-2-2-2-|
5-5-5-5-5-5-|7-7-7-7-7-7-|2-2-2-2-2-2-|
3-3-3-3-3-3-|5-5-5-5-5-5-|0-0-0-0-0-0-|
                       
Solo Part
-----------------------------------------------------------
-----------------------------------------------------------
-7-6-7-6-7-6---7-6-7-6-7-6---9-11-9-11-9-11----------------
-------------7-------------9----------------12-------------
-----------------------------------------------------------
-----------------------------------------------------------

-----------------------------------------------------------
-----------------------------------------------------------
-9-11-9-11-9-11---------------------------9-9-9-11-11-11--
-------------7---9-9-9-11-11-11-12-12-12--------------------
------------------------------------------------------------
------------------------------------------------------------

-----5----|----7------9--7--2-|--9-7-2|
----------|-------------------|-------|
----------|-------------------|-------|
5---------|-7-------9---------|-------|
5---------|-7-------9---------|-------|
3---------|-5-------7---------|-------|

------------|------------|------------|
------------|------------|------------|
4-4-4-4-4-4-|6-6-6-6-6-6-|------------|
5-5-5-5-5-5-|7-7-7-7-7-7-|2-2-2-2-2-2-|
5-5-5-5-5-5-|7-7-7-7-7-7-|2-2-2-2-2-2-|
3-3-3-3-3-3-|5-5-5-5-5-5-|0-0-0-0-0-0-|


End
0-0-0-0-0-0-|0-0-0-0-0-0-|0-0-0-0-0-0-|
0-0-0-0-0-0-|0-0-0-0-0-0-|0-0-0-0-0-0-|
4-4-4-4-4-4-|6-6-6-6-6-6-|8-8-8-8-8-8-|
5-5-5-5-5-5-|7-7-7-7-7-7-|9-9-9-9-9-9-|
5-5-5-5-5-5-|7-7-7-7-7-7-|9-9-9-9-9-9-|
3-3-3-3-3-3-|5-5-5-5-5-5-|7-7-7-7-7-7-|

------------|------------|------------|
------------|------------|------------|
4-4-4-4-4-4-|6-6-6-6-6-6-|------------|
5-5-5-5-5-5-|7-7-7-7-7-7-|2-2-2-2-2-2-|
5-5-5-5-5-5-|7-7-7-7-7-7-|2-2-2-2-2-2-|
3-3-3-3-3-3-|5-5-5-5-5-5-|0-0-0-0-0-0-|

0-0-0-0-0-0-|0-0-0-0-0-0-|0-0-0-0-0-0-|
0-0-0-0-0-0-|0-0-0-0-0-0-|0-0-0-0-0-0-|
4-4-4-4-4-4-|6-6-6-6-6-6-|8-8-8-8-8-8-|
5-5-5-5-5-5-|7-7-7-7-7-7-|9-9-9-9-9-9-|
5-5-5-5-5-5-|7-7-7-7-7-7-|9-9-9-9-9-9-|
3-3-3-3-3-3-|5-5-5-5-5-5-|7-7-7-7-7-7-|

0-0-0-0-0-0-|0-0-0-0-0-0-|0-0-0-0-0-0-|
0-0-0-0-0-0-|0-0-0-0-0-0-|0-0-0-0-0-0-|
4-4-4-4-4-4-|6-6-6-6-6-6-|8-8-8-8-8-8-|
5-5-5-5-5-5-|7-7-7-7-7-7-|9-9-9-9-9-9-|
5-5-5-5-5-5-|7-7-7-7-7-7-|9-9-9-9-9-9-|
3-3-3-3-3-3-|5-5-5-5-5-5-|7-7-7-7-7-7-|

0-0-0-0-0-0-|0-0-0-0-0-0-|0----------|
0-0-0-0-0-0-|0-0-0-0-0-0-|0---------0|
4-4-4-4-4-4-|6-6-6-6-6-6-|4-------8--|
5-5-5-5-5-5-|7-7-7-7-7-7-|5-----9----|
5-5-5-5-5-5-|7-7-7-7-7-7-|5---9------|
3-3-3-3-3-3-|5-5-5-5-5-5-|3-7--------|
Comments