Nickelback - Hero Acoustic Chords & Tabs

 

Hero Acoustic Chords & Tabs

Nickelback Chords & Tabs

Version: 1 Type: Tab 3 ratings
1 star 2 stars 3 stars 4 stars 5 stars
comments

Hero Acoustic Tab

Artist: Chad Kroeger & Josey Scott 
Title: Hero, Acoustic
Tabbed by: Jay Morales


   
E--------------------------------------3---------------
B----------5-5-5-5-----------5-5-5-5---3--2------------
G-4-4-4-4--4-4-4-4--4-4-4-4--4-4-4-4---0-22--1--1111111
D-6-6-6-6--6-6-6-6--6-6-6-6--6-6-6-6--0--2---2--2222222
A-6-6-6-6--7-7-7-7--6-6-6-6--7-7-7-7--2--0---2--2222222
E-4-4-4-4--4-4-4-4--4-4-4-4--4-4-4-4--3---------xxxxxxx

                     
E------------------------------------------ 
B------------------------------------------ 
G--4-44-6-66-4-44-444-4-4-44-6-66-1-11-1111
D--5-55-7-77-4-44-444-4-5-55-7-77-1-11-1111
A--5-55-7-77-2-22-222-2-5-55-7-77-2-22-2222
E--3-33-5-55------------3-33-5-55-x-xx-xxxx


E--------------------------------------3---------------
B----------5-5-5-5-----------5-5-5-5---3--2------------
G-4-4-4-4--4-4-4-4--4-4-4-4--4-4-4-4---0-22--1--1111111
D-6-6-6-6--6-6-6-6--6-6-6-6--6-6-6-6--0--2---2--2222222
A-6-6-6-6--7-7-7-7--6-6-6-6--7-7-7-7--2--0---2--2222222
E-4-4-4-4--4-4-4-4--4-4-4-4--4-4-4-4--3---------xxxxxxx
[ Tab from: http://www.guitartabs.cc/tabs/n/nickelback/hero_acoustic_tab.html ]
                     
E------------------------------------------ 
B------------------------------------------ 
G--4-44-6-66-4-44-444-4-4-44-6-66-1-11-1111
D--5-55-7-77-4-44-444-4-5-55-7-77-1-11-1111
A--5-55-7-77-2-22-222-2-5-55-7-77-2-22-2222
E--3-33-5-55------------3-33-5-55-x-xx-xxxx

E-------------------------------------------------------------
B---3p2h3p2--3p2h3p2---------7p6h7p6--7p6h7p6-----------------
G----------4~-------2~2/4-4/6-------7~-------6~-4-4-4/6-6/7/9-
D-------------------------------------------------------------
A-------------------------------------------------------------
E-------------------------------------------------------------


E-----5---7---9-7-9-7-----5~-5~----
B----------------7---7---5-----5---
G-----------------------0-------4~-
A----5---7---9---------------------
D---5---7---9----------------------
E--3---5---7-----------------------


E------------------------------------------ 
B------------------------------------------ 
G--4-44-6-66-4-44-444-4-4-44-6-66-4-44-444-
D--5-55-7-77-4-44-444-4-5-55-7-77-4-44-444-
A--5-55-7-77-2-22-222-2-5-55-7-77-2-22-222-
E--3-33-5-55------------3-33-5-55----------


E-----------------------
B----------------------- 
G--4-44-6-66-1-11-444-4-
D--5-55-7-77-2-22-444-4-
A--5-55-7-77-2-22-222-2-
E--3-33-5-55------------


Comments