Nickelback - Good Times Gone Chords & Tabs

 

Good Times Gone Chords & Tabs

Nickelback Chords & Tabs

Version: 1 Type: Tab 0 ratings
1 star 2 stars 3 stars 4 stars 5 stars
comments

Good Times Gone Tab

Band- Nickelback
Song- Good Times Gone

This is just most of the basic riffs/chords.
Standard tuning.

Intro chords:

Play around with G and C power chords so that it sounds good. Slide up from the C power
chord at the end which leads into this neat riff:


Intro riff:

E--------------------------------------=|
B--------------------------------------=|
G-----0-------0-------0-------0--------=|
D-------0-------0-------0-------0------=|
A-------------------1-----1-3-----3----=|
E---3-----3-1-----1-----------------3--=|

This riff just keeps repeating itself

Then the chorus comes in at about 1:25 or so:


E-----------------|
B-----------------|
G-----------------|
D----8---10---5---|
A----8---10---5---|
E----6----8---3---|

Where the good times gone?
Where the good times gone?

Play that part twice.

E-------------|
B-------------|
G-------------|
D----8---10---|
A----8---10---|
E----6----8---|

All that stupid fun
All that shit we done

Play this part twice




[ Tab from: http://www.guitartabs.cc/tabs/n/nickelback/good_times_gone_tab.html ]
E-----------------|
B-----------------|
G-----------------|
D----8---10---5---|
A----8---10---5---|
E----6----8---3---|

Where the good times gone?
Well I still don't know.

Play this only once this time

This brings us to about 1:52 or so. The chords in the next section are a simple pattern
of G, F, Bb, and C. I like to play them all as power chords and slide from one to
another, but that's my preference.

The next section begins at about 2:04.

This is just the opening riff played over the G, F, Bb, C progression.

The next section begins at about 2:29

E-----------------------------------------------------------------------|
B-----------------------------------------------------------------------|
G------3--------------------------------------3--3---5------------------|
D------3--------------------------------------3--3---5------------------|
A------1--------------------------------------1--1---3------------------|
E----------------------------------------------------3------------------|
Comments