Nickelback - Follow You Home Chords & Tabs

 

Follow You Home Chords & Tabs

Nickelback Chords & Tabs

Version: 2 Type: Tab

Follow You Home Tab

-------------------------------------------------------------------------------
			     Nickelback - Follow You Home
-------------------------------------------------------------------------------
Tabbed by: Leo
Email: leo@free-gaming.com

Tuning: CGCFAD

Intro
D|----------------------------------0-----------------------------------------|
A|----------------------------------3-----------------------------------------|
F|----------------------------------2-----------------------------------------|
C|-7-5-7-5-7-10-7-5-7-5-7-10-5-7----0-7-10----7-5-7-10-5-7----3---10-12-------|
G|-7-5-7-5-7-10-7-5-7-5-7-10-5-7----0-7-10----7-5-7-10-5-7----3---10-12-------|
C|-7-5-7-5-7-10-7-5-7-5-7-10-5-7----0-7-10----7-5-7-10-5-7----3---10-12-------|

Verse: Bass

Prechorus: "You can stick me in a hole"
D|-----------------0----------------------------------------------------------|
A|-----------------3----------------------------------------------------------|
F|-----------------2----------------------------------------------------------|
C|-7-5-7-10-5-7----0----7-10--------------------------------------------------| x 4
G|-7-5-7-10-5-7----0----7-10--------------------------------------------------|
C|-7-5-7-10-5-7----0----7-10--------------------------------------------------|
[ Tab from: http://www.guitartabs.cc/tabs/n/nickelback/follow_you_home_tab_ver_2.html ]
Chorus: "And I stay alive ...."
D|-------0---------------------0----------------------------------0-----------|
A|-------3---------------------3----------------------------------3-----------|
F|-------2---------------------2----------------------------------2-----------|
C|--3----0-----7-5-7-10-5-7----0----7-10----------7-5-7-10-5-7----0----7-10---|
G|--3----0-----7-5-7-10-5-7----0----7-10----------7-5-7-10-5-7----0----7-10---|
C|--3----0-----7-5-7-10-5-7----0----7-10----------7-5-7-10-5-7----0----7-10---|

"And I will survive ... "    "Cause you're my Mississippi Princess...."
D|-------0------------------------------0-0-----------------------------------|
A|-------3------------------------------3-3-----------------------------------|
F|-------2------------------------------2-2--------------------------7-7-7----|
C|--3----0--------------------7-7-7-----0-0----5-0-----10-10-10------7-7-7----|
G|--3----0--------------------7-7-7-----0-0----5-0-----10-10-10------5-5-5----|
C|--3----0--------------------7-7-7-----0-0----5-0-----10-10-10---------------|
                                                   "I'll still follow you home"
D|---------------------0-0----------------------------------------------------|
A|---------------------3-3----------------------------------------------------|
F|---------------------2-2----------------------------------------------------|
C|--5-0-------7-7-7----0-0----5-0-----10-10-10-----5-7-5-7-10-7-5-7-5-7-10-5-7|
G|--5-0-------7-7-7----0-0----5-0-----10-10-10-----5-7-5-7-10-7-5-7-5-7-10-5-7|
C|--5-0-------7-7-7----0-0----5-0-----10-10-10-----5-7-5-7-10-7-5-7-5-7-10-5-7|

D|-0--------------------------------------------------------------------------|
A|-3--------------------------------------------------------------------------|
F|-2--------------------------------------------------------------------------|
C|-0----7-10------7-5-7-10-5-7-----3-----10-12--------------------------------|
G|-0----7-10------7-5-7-10-5-7-----3-----10-12--------------------------------|
C|-0----7-10------7-5-7-10-5-7-----3-----10-12--------------------------------|


No solos.