Nickelback - Flat On The Floor Chords & Tabs

 

Flat On The Floor Chords & Tabs

Nickelback Chords & Tabs

Version: 1 Type: Tab 0 ratings
1 star 2 stars 3 stars 4 stars 5 stars
comments

Flat On The Floor Tab

Song: Flat on the Floor
Artist: Nickelback
Tabbed by: Travis
Tuning: Dropped D

Intro, Chorus, Bridge:
d----------------------------------------------------------5-5--3-3
a----------------------------------------------------------5-5--3-3
D-0-0-0--0-3-3--0-3-5-5--0-3-5b--3--0-0-0--0-3-3--0-3-5-5--5-5--3-3
Play this twice, except on the bridge.
[ Tab from: http://www.guitartabs.cc/tabs/n/nickelback/flat_on_the_floor_tab.html ]
Verse, Fill:                     F
d-0-0-0-----0--0-0-----0-0-0-----3-----5-
a-0-0-0-----0--0-0-----0-0-0-----3-----5-
D-0-0-0-----0--0-0-----0-0-0-----3-----5-
Play this twice.  For Verse 3, don't play until the first F chord, and then continue playing the rest of the verse.

End:
d-0-0-0-----0--0-0-----0-0-0-----3-----5-----0-0-0
a-0-0-0-----0--0-0-----0-0-0-----3-----5-----0-0-0
D-0-0-0-----0--0-0-----0-0-0-----3-----5-----0-0-0

Order:
Intro
Verse
Chorus
Verse
Chorus
Fill
Bridge (remember, play it only once).
Verse 3
Chorus x2
End
Comments