Nickelback - Figured You Out Chords & Tabs

 

Figured You Out Chords & Tabs

Nickelback Chords & Tabs

Version: 6 Type: Tab 0 ratings
1 star 2 stars 3 stars 4 stars 5 stars
comments

Figured You Out Tab

Figured You Out - Nickelback
Drop C Tuning (Drop D and one full step down)
Tabbed By YoYoJoe

Verse
|---------------------------------------------------------------------|
|-----3-3-------3-3-3-------3-3-3-------3-3-3-------------------------|
|-----2-2-------2-2-2-------2-2-2-------2-2-2-------------------------|
|-----0-0-------0-0-0-------0-0-0-------0-0-0-------3-3-3-------3-3-3-|
|-10\-0-0-------0-0-0-------0-0-0-------0-0-0-------3-3-3-------3-3-3-|
|-10\-0-0--0-0--0-0-0--0-0--0-0-0--0-0--0-0-0--0-0--3-3-3--3-3--3-3-3-|
PM         ___         ___         ___         ___         ___

|------------------------------------------------------------------------|
|------------------------------------------------------------------------|
|------------------------------------------------------------------------|
|------3-3-3-------3-3-3-------5-5-5-------5-5-5-------5-5-5-------5-5-5-|
|------3-3-3-------3-3-3-------5-5-5-------5-5-5-------5-5-5-------5-5-5-|
|-3-3--3-3-3--3-3--3-3-3--3-3--5-5-5--5-5--5-5-5--5-5--5-5-5--5-5--5-5-5-|
PM___         ___         ___         ___         ___         ___

|----------------------------------|
|--------3-3-------3-3-3---------3-|
|--------2-2-------2-2-2---------2-|
|-3-3-3--0-0-------0-0-0---------0-|
|-3-3-3--0-0-------0-0-0---------0-|
|-3-3-3--0-0--0-0--0-0-0--0-0-0--0-|
PM            ___         _____  *On the second time dont play this chord

(In second part, Guitar one)
|--------|
|--------|
|--------|
|--------|
|---/10\-|
|-0-/10\-| Then continue with the rest of the verse

(In second part, Guitar two)
|------------------------------------------------------------------|
|------------------------------------------------------------------|
|-13-12-13-12-15--15-12--12-12-12--13-12-13-12-15--15-12--12-12-12-|
|-x--x--x--x--x---x--x---x--x--x---x--x--x--x--x---x--x---x--x--x--|
|-11-10-11-10-13--13-10--10-10-10--11-10-11-10-13--13-10--10-10-10-|
|------------------------------------------------------------------|

|------------------------------------------------------------------|
|------------------------------------------------------------------|
|-16-15-16-15-18--18-15--15-15-15--16-15-16-15-18--18-15--15-15-15-|
|-x--x--x--x--x---x--x---x--x--x---x--x--x--x--x---x--x---x--x--x--|
|-14-13-14-13-16--16-13--13-13-13--14-13-14-13-16--16-13--13-13-13-|
|------------------------------------------------------------------|
[ Tab from: http://www.guitartabs.cc/tabs/n/nickelback/figured_you_out_tab_ver_6.html ]
|-------------------------------------------------------|
|-------------------------------------------------------|
|-15-15-15-15---15-15-15-15---15-15-15-15---15-15-15-15-|
|-x--x--x--x----x--x--x--x----x--x--x--x----x--x--x--x--|
|-13-13-13-13---13-13-13-13---13-13-13-13---13-13-13-13-|
|-------------------------------------------------------|

|---------------------------------|
|---------------------------------|
|-13-12-13-12-15--15-12--12-12-12-|
|-x--x--x--x--x---x--x---x--x--x--|
|-11-10-11-10-13--13-10--10-10-10-|
|---------------------------------|

Chorus
|--------------------------------------------------------------------------|
|--------------------------------------------------------------------------|
|------------------------------------------------------8-8-8-8-----8-8-8-8-|
|-5-5-5-5-5-5-5-5-8-8-8-8-8-8-8-8-6-6-6-6-6-6-6-6------x-x-x-x-----x-x-x-x-|
|-5-5-5-5-5-5-5-5-8-8-8-8-8-8-8-8-6-6-6-6-6-6-6-6-0-0--6-6-6-6--0--6-6-6-6-|
|-5-5-5-5-5-5-5-5-8-8-8-8-8-8-8-8-6-6-6-6-6-6-6-6-0-0-----------0----------|
PM_______                                         ************************ 
                                           Repeat this part a few more times
                                            on the second half of the chorus

Solo 1
|-------------------------------------|
|-------------------------------------|
|-------------------------------------|
|-------------------{----------5p3}---|
|-------------------{--3-3-3-3----}---|
|-0-{0-2p1p0-2p0}X3-{0-3-3-3-3----}X4-|

|----------------------------------------|
|----------------------------------------|
|----------------------------------------|
|-{----------5p3}------------------------|
|-{--2-2-2-2----}----0-------------------|
|-{0-2-2-2-2----}X4----0-{0-2p1p0-2p0}X2-|
Both Guitars ___

Third Verse

|---------------------------------------------------------|
|---------------------------------------------------------|
|---------------------------------------------------------|
|---------------------------------------------------------|
|---------------------------------------------------------|
|-0-0--3-0--0-0-0-3-0--0-0-0--3-3--5-3--3-3-3--5-3--3-3-3-|
PM_______________________________________________________

|---------------------------------------------------------|
|---------------------------------------------------------|
|---------------------------------------------------------|
|---------------------------------------------------------|
|---------------------------------------------------------|
|-5-5--7-5--5-5-5--7-5--5-5-5--0-0--3-0--0-0-0-3-0--0-0-0-|
PM_______________________________________________________

Outro Solo
|---------------------------------------------------|
|---------------------------------------------------|
|--------------------------------------------5-5--5-|
|--------------------------------2-2--2-2-2--3-3--3-|
|--------------------------------2-2--2-2-2--3-3--3-|
|-0--0-2p1p0-2p0--0-2p1p0-2p0--0-2-2--2-2-2--3-3--3-|
Comments