Nickelback - Figured You Out Chords & Tabs

 

Figured You Out Chords & Tabs

Nickelback Chords & Tabs

Version: 1 Type: Bass Tab 0 ratings
1 star 2 stars 3 stars 4 stars 5 stars
comments

Figured You Out Bass Tab

Song: 	    'Figured You Out'
Artist:     Nickelback
Album:	    The Long Road
Bassist:    Mike Kroeger
Tabbed By:  lowestfrequency 
Tuning:	    Standard 5-string (BEADG low-to-high)

Performance Notes

The muted strings under the pre-chorus are very hard to hear and Mike may not play them
at all.  The first two measures of the chorus could be played in the first position on the
A and E strings but this sounds much fuller and makes getting the Eb passing tone easier.
The middle break is heavily palm muted.

Transcription

Verse w/ ending 1
G|----|----------------|----------------|----------------|----------------|
D|----|----------------|----------------|----------------|----------------|
A|----|----------------|----------------|----------------|----------------|
E|----|----------------|----------------|----------------|----------------|
B|6-\-|1-1-----1-1-----|1-1-----1-1-----|4-4-----4-4-----|4-4-----4-4-----|

G|----------------|----------------|----------------|----------------|
D|----------------|----------------|----------------|----------------|
A|----------------|----------------|----------------|----------------|
E|----------------|----------------|----------------|----------------|
B|6-6-----6-6-----|6-6-----6-6---4-|1-1-----1-1-----|1---------------|

Pre-Chorus
G|----------------|----------------|----------------|----------------|
D|----------------|----------------|----------------|----------------|
A|----------------|----------------|----------------|----------------|
E|----------------|----------------|----------------|----------------|
B|1-1xx--x1-------|1-1xx--x1-1xx--x|4-4xx--x4------|4-4xx--x4-4xx--x|

G|----------------|----------------|----------------|----------------|
D|----------------|----------------|----------------|----------------|
A|----------------|----------------|----------------|----------------|
E|----------------|----------------|----------------|----------------|
B|6-6xx--x6-6xx--x|6-6xx--x6-6--x4-|1-1xx--x1-1xx--x|1-1-1-1-1-1-1-1\|

Chorus w/ ending 1
G|----------------|----------------|----------------|----------------|
D|----------------|----------------|----------------|----------------|
A|----------------|----------------|----------------|----------------|
E|6-6-6-6-6-6-6-6-|----------------|----------------|----------------|
B|----------------|6-6-6-6-6-6-6-4-|1-------1-------|1-1-1-1-1-1-1-1\|

G|----------------|----------------|----------------|----------------|
D|----------------|----------------|----------------|----------------|
A|----------------|----------------|----------------|----------------|
E|6-6-6-6-6-6-6-6-|----------------|----------------|----------------|
B|----------------|6-6-6-6-6-6-6-4-|1-------1-------|1-----------6-\-|
[ Tab from: http://www.guitartabs.cc/tabs/n/nickelback/figured_you_out_btab.html ]
Verse w/ ending 2
G|----------------|----------------|----------------|----------------|
D|----------------|----------------|----------------|----------------|
A|----------------|----------------|----------------|----------------|
E|----------------|----------------|----------------|----------------|
B|1-1-----1-1-----|1-1-----1-1-----|4-4-----4-4-----|4-4-----4-4-----|

G|----------------|----------------|----------------|----------------|
D|----------------|----------------|----------------|----------------|
A|----------------|----------------|----------------|----------------|
E|----------------|----------------|----------------|----------------|
B|6-6-----6-6-----|6-6-----6-6---4-|1-1-----1-1-----|1-----------6-\-|

Pre-Chorus

Chorus w/ ending 2
G|----------------|----------------|----------------|----------------|
D|----------------|----------------|----------------|----------------|
A|----------------|----------------|----------------|----------------|
E|6-6-6-6-6-6-6-6-|----------------|----------------|----------------|
B|----------------|6-6-6-6-6-6-6-4-|1-------1-------|1-1-1-1-1-1-1-1\|

G|----------------|----------------|----------------|----------------|
D|----------------|----------------|----------------|----------------|
A|----------------|----------------|----------------|----------------|
E|6-6-6-6-6-6-6-6-|----------------|----------------|----------------|
B|----------------|6-6-6-6-6-6-6-4-|1-------1-------|1-------1-------|

G|----------------|----------------|
D|----------------|----------------|
A|----------------|----------------|
E|----------------|----------------|
B|1-------1-------|1-1-1-1-1-1-1-1-|

Middle Break
G|----------------|----------------|----------------|----------------|
D|----------------|----------------|----------------|----------------|
A|----------------|----------------|----------------|----------------|
E|----------------|----------------|----------------|----------------|
B|1-1-----1-1-----|1-1-----1-1-----|4-4-----4-4-----|4-4-----4-4-----|

G|----------------|----------------|----------------|----------------|
D|----------------|----------------|----------------|----------------|
A|----------------|----------------|----------------|----------------|
E|----------------|----------------|----------------|----------------|
B|6-6-----6-6-----|6-6-----6-6---4-|1-1-----1-1-----|1---------------|

G|------------------|----------------|--------------------|----------------|
D|------------------|----------------|--------------------|----------------|
A|------------------|----------------|--------------------|----------------|
E|------------------|----------------|--------------------|----------------|
B|1-1---6\-1-1---6\-|1-1-------------|4-4---10\-4-4---10\-|4-4-------------|

G|--------------------|----------------|----------------|----------------|
D|--------------------|----------------|----------------|----------------|
A|--------------------|----------------|----------------|----------------|
E|--------------------|----------------|----------------|----------------|
B|6-6---12\-6-6---12\-|6-6-------------|1-1-6\--1-1-1-1-|1---------------|

Pre-Chorus

Chorus w/ ending 2

Ending
G|----------------|----------------|----------------|
D|----------------|----------------|----------------|
A|----------------|----------------|----------------|
E|----------------|----------------|----------------|
B|1-------1-------|1-------4-4x4-4-|1-1-------------|
Comments