Nickelback - Fight For All The Wrong Reasons Chords & Tabs

 

Fight For All The Wrong Reasons Chords & Tabs

Nickelback Chords & Tabs

Version: 1 Type: Tab

Fight For All The Wrong Reasons Tab

   
Title: Fight for all the Wrong Reasons
Artist: Nickelback
Album: All the Right Reasons

Instrument: 6 String Guitar

Tabbed by: Jason (pojo_us@yahoo.com)

Tuning: Dropped D (D A D G B E)

I was only able to find one tab out for this song and honestly it just plain sucked
@SS the tuning was way off . But neways here is my version of the begining of the
song. havent had much time to sit down and do the whole thing.

[ Tab from: http://www.guitartabs.cc/tabs/n/nickelback/fight_for_all_the_wrong_reasons_tab.html ]
E|---------------------------------------------------------------------||
B|---------------------------------------------------------------------||
G|--------------8-----------------------------------8-10-8-10-11-10-8--||
D|-10-10-10-X-X-8---8-10-8-10---------3-3-3-X-X-8---8-10-8-10-11-10-8--|| X2
A|-10-10-10-X-X-6---8-10-8-10---------3-3-3-X-X-8---6--8-6--8--9--8-6--||
D|-10-10-10-X-X-----8-10-8-10-13-10-8-3-3-3-X-X-8----------------------||
           [PM]                             [PM]

This next part i havent figured out yet but it goes something like

E|-------------------------------------------------------------------||
B|-------------------------------------------------------------------||
G|-------------------------------------------------------------------||
D|-----1---1-3-1---3-----1---1-3-1 Dont know the rest ---------------||
A|-3-3---3-------3---3-3---3-----------------------------------------||
D|-------------------------------------------------------------------||

Hopefully someone can figure out the rest of the song..for the most part
it repeats these two parts throughout the song.