Nickelback - Far Away Chords & Tabs

 

Far Away Chords & Tabs

Nickelback Chords & Tabs

Version: 1 Type: Bass Tab

Far Away Bass Tab

   
Nickelback - Far away
tabbed by G-Suz
E A D G
 
Verse
   4/4
    Gtr I
    H.       Q    H.       Q    H.       Q    H.       Q     4x
||--------------|-------------|-------------|----------------||
||o-------------|-------------|-------------|---------------o||
||o-2-------/4--|---------/6--|-------------|---------------o||
||--------------|-2-----------|-4-------/7--|-0-------/2-----||


 Pre-Chorus
  Q.   E +Q   Q    Q.   E +Q   Q    Q.   E +Q   Q    Q.   E +Q   Q
|----------------|----------------|----------------|----------------||
|----------------|----------------|----------------|----------------||
|-4----4-(4)--4--|-4----4-(4)--4--|----------------|----------------||
|----------------|----------------|-0----0-(0)--0--|-0----0-(0)--2--||


   Chorus
                                                      1.,2.,3.
    Q.   E +Q   Q    Q.   E +Q   Q    Q.   E +Q   Q    Q.   E +Q   Q  4x
||-----------------|----------------|----------------|----------------||
||o----------------|----------------|----------------|---------------o||
||o-2----2-(2)--2--|----------------|----------------|---------------o||
||-----------------|-2----2-(2)--2--|-4----4-(4)--4--|-0----0-(0)--2--||


  4.
                 To CoD.C. al Coda
  >
  W          +W           W
|----------|------------|----------||
|----------|------------|----------||
|----------|------------|----------||
|-0--------|-(0)--------|----------||

[ Tab from: http://www.guitartabs.cc/tabs/n/nickelback/far_away_btab.html ]
    &
    H.       Q    H.       Q    H.       Q    H.       Q
||--------------|-------------|-------------|---------------||
||o-------------|-------------|-------------|--------------o||
||o-2-------/4--|---------/6--|-------------|--------------o||
||--------------|-2-----------|-4-------/7--|-0-------/2----||


  Q.   E +Q   Q    Q.   E +Q   Q    Q.   E +Q   Q    Q.   E +Q   Q
|----------------|----------------|----------------|----------------||
|----------------|----------------|----------------|----------------||
|-4----4-(4)--4--|-4----4-(4)--4--|----------------|----------------||
|----------------|----------------|-0----0-(0)--0--|-0----0-(0)--2--||


    Q.   E +Q   Q    Q.   E +Q   Q
||-----------------|----------------|
||o----------------|----------------|
||o-2----2-(2)--2--|----------------|
||-----------------|-2----2-(2)--2--|


 1.                                  2.
  Q.   E +Q   Q    Q.   E +Q   Q     Wx2
|----------------|----------------||--------||
|----------------|---------------o||--------||
|----------------|---------------o||--------||
|-4----4-(4)--4--|-0----0-(0)--2--||--------||


   Out-Chorus
    Q.   E +Q   Q    Q.   E +Q   Q    Q.   E +Q   Q    Q.   E +Q   Q  8x W
||-----------------|----------------|----------------|----------------||------*|
||o----------------|----------------|----------------|---------------o||-4----*|
||o-4----4-(4)--4--|----------------|----------------|---------------o||------*|
||-----------------|-4----4-(4)--4--|-6----6-(6)--6--|-2----2-(2)--4--||-2----*|