Nickelback - Do This Anymore Chords & Tabs

 

Do This Anymore Chords & Tabs

Nickelback Chords & Tabs

Version: 1 Type: Tab 0 ratings
1 star 2 stars 3 stars 4 stars 5 stars
comments

Do This Anymore Tab

Song - Artist:  Do This Anymore - Nickelback
From: The Long Road (2003)
Tab: Kevin
Tuning: Dropped D down a whole step ("drop c")

x= mute
/= slide up
\= slide down
^= bend up a whole step
h= hammer on
p= pull off

Verse, Pre Verse:
d-------------------------------------------x
a-------------------------------------------x
f-------------------5-----------------------x
c-5-----8-----3-----5-----5-----8-----3-----x
g-5-----8-----3-----3-----5-----8-----3-----x
C-5-----8-----3-----------5-----8-----3-----x
	Let the notes ring, their played with distortion

fill (No, I don't . . . ) :
d-----------------------------
a-----------------------------
f-----------------------------
c-3xxxxxxxx-10xx10-10-----10h12---->
g-3xxxxxxxx-10xx10-10-----10h12---->  The last two 10's kind of fade in off the mute
C-3xxxxxxxx-10xx10-10-----10h12---->

Pre Chorus (well no I don't find faith in your forced feelings . . . ):
d--------------------------------------------
a--------------------------------------------
f--------------------------------------------
c-00---12\3-33--0-88--0-8h10-10-10-8h10-10-10
g-00---12\3-33--0-88--0-8h10-10-10-8h10-10-10
C-00---12\3-33--0-88--0-8h10-10-10-8h10-10-10

(Play the pre chorus twice)

Chorus: (play twice)
d--------------------------------------
a--------------------------------------
f--------------------------------------
c-00-xx-xx--33-xx--x-8888-x5-x3--------
g-00-xx-xx--33-xx--x-8888-x5-x3--------
C-00-xx-xx--33-xx--x-8888-x5-x3--------
[ Tab from: http://www.guitartabs.cc/tabs/n/nickelback/do_this_anymore_tab.html ]
Post Chorus (whoooaa oooo . . .), Everyone after the first time:
d----------------------------    (-------------------------)
a----------------------------    (-------------------------)
f-------------5555--x--------    (-------------5555--x-----)
c-8888--3333--5555--x3--x8---    (-8888--3333--5555--x5--x7)
g-8888--3333--3333--x3--x8---    (-8888--3333--3333--x5--x7)
C-8888--3333--------x3--x8---    (-8888--3333--------x5--x7)

Solo: There's what sounds like a pick scrape leading into the solo:
d-----------------------------------------------------------------15^15-13-15^15-13--
a-------------------------------------------------------13h15p13---------------------
f-----------/10-9-10h12p10-9-10-------/10-9-10h12-12/14------------------------------
c-/10^10~~~~---------------------10^10-----------------------------------------------
g------------------------------------------------------------------------------------
C------------------------------------------------------------------------------------

d------------------15^15-13-15^15-13--15^ (slow bend, up one step)
a-13h15--13h15p13------------------------
f----------------------------------------
c----------------------------------------
g----------------------------------------
C----------------------------------------

The first version that I saw of this was just too high, and when I played it with the record, 
I couldnt get it to work so well.  It took me about 20 minutes to realize that it's in 'Drop C.'  
You should be able to piece together the rest of the song based off of the tab above, it's not difficult. 
There are a couple parts I didn't get, just 'cause I'm lazy. 
Listen to the song itself, because I'm sure that the way I have this tabbed it's 
not going to give you a great idea of how the timing goes.  Comments, suggestions, feedback, 
please send to docmurray27@hotmail.com   This was my first tab...
-K
Comments