Nickelback - Deep Chords & Tabs

 

Deep Chords & Tabs

Nickelback Chords & Tabs

Version: 1 Type: Tab 0 ratings
1 star 2 stars 3 stars 4 stars 5 stars
comments

Deep Tab

Deep - Nickelback

Tuning: Dropped D


Intro

e--------------------------------------------------------------------
B--------------------------------------------------------------------
G---------x-5--------------------------5-5-5-------------------------
D---x-3---x-5--------------------------5-5-5-------------x-5--x-3----
A---x-3---x-3------8-5-5-8-5---8-5-8-5-3-3-3--8-5-5-8-5--x-5--x-3----
D---x-3------------0-0-0-0-0---0-0-0-0--------0-0-0-0-0--x-5--x-3----

Verse:

e---------------------------------------------------
B---------------------------------------------------
G-----------------------------------------5-5-------
D----------------------5-5-5--------------5-5-5-5---
A---8-5-5-8-5--8-5-8-5-3-3-3---8-5-5-8-5--3-3-5-5---
D---0-0-0-0-0--0-0-0-0---------0-0-0-0-0------5-5---

Chorus:

e-------------------------------------------------------
B-------------------------------------------------------
G-----------------------5-5-5---------------x-5---x-5---
D-----------------------5-5-5---------------x-5---x-5---
A---3-5-5-3-5---3-5-5-3-5-3-3---3-5-5-3-5---x-3---x-3---
D---0-0-0-0-0---0-0-0-0---------0-0-0-0-0---------------

Interlude:
[ Tab from: http://www.guitartabs.cc/tabs/n/nickelback/deep_tab.html ]
e----------------------------------------------------
B----------------------------------------------------
G-----------------------5-----------------------5----
D-----------------------5-----------------------5----
A------5-3-0-3--5-3-0-3-3------5-3-0-3--5-3-0-3-3----
D----0-0-0-0-0--0-0-0-0------0-0-0-0-0--5-3-0-3------

 heavier part:

e----------------------------------------------------------------
B----------------------------------------------------------------
G----------------------------5-----------------------------5-----
D----------------------------5-----------------------------5-----
A------5-3-0-3-------5-3-0-3-3-------5-3-0-3-------5-3-0-3-3-----
D----0-0-0-0-0-0-0-0-0-0-0-0-------0-0-0-0-0-0-0-0-5-3-0-3-------


"Drum Solo" Part

e----------------------------------------------------
B----------------------------------------------------
G----------x-5----------------------x-5--------------
D----x-3---x-5-----------------x-3--x-5--x-5--x-3----
A----x-3---x-3-----------------x-3--x-3--x-5--x-3----
D----x-3-----------------------x-3-------x-5--x-3----

Bass Riff:

G-----------------------------
D-----------------------------
A-----------------------------
D---0---0-------0---0--3------





Comments