Nickelback - Breathe Chords & Tabs

 

Breathe Chords & Tabs

Nickelback Chords & Tabs

Version: 1 Type: Tab 1 rating
1 star 2 stars 3 stars 4 stars 5 stars
comments

Breathe Tab

Breathe - Nickelback

Tuning - Dropped D down 1 whole step
         (low to high - CGCFAD)

Intro Riff:
D--------------------------------------
A--------------------------------------
F--------------------------------------
C--------------------------------------
G-------------------------------3h5----
C---0---0-0-3h5--0---0-3h5--0-0--------

Band Kicks in:
D------------------------------------
A------------------------------------
F------------------------------------
C------------------------------------
G---5-5-5-5-------------------3h5----
C---0-0-0-0-3h5-0--0-3h5--0-0--------

play 3 times then:
D--------------------
A--------------------
F--------------------
C--5-5-5-5-5-5-5/7---
G--3-3-3-3-3-3-3/5---
C--------------------

Verse:
D---------------------------------------------------------
A---------------------------------------------------------
F---------------------------------------------------------
C--------7--3---5----3-------5-7---------3----5-----3-----
G---5----------------------5------5-----------------------
C---------------------------------------------------------

Chorus:
D-----------------------------------------------------------------------
A-----------------------------------------------------------------------
F---7--7--7--7-7-7--10--10--10--10-10-10-10--5--5--5--5-5-5-------------
C---7--7--7--7-7-7--10--10--10--10-10-10-10--5--5--5--5-5-5--3-3--3-3---
G---5--5--5--5-5-5--8---8---8---8--8--8--8---3--3--3--3-3-3--3-3--3-3---
C---0--0--0--0-0-0-------------------------------------------3-3--3-3---


Part after 2nd chorus:
palm mute at the start then gradually release

D---------------------
A---------------------
F---------------------
C--5-5-5-5-5-5-5-5----
G--3-3-3-3-3-3-3-3----
C---------------------

[ Tab from: http://www.guitartabs.cc/tabs/n/nickelback/breathe_tab.html ]
D-----------------------------------------------------------------------
A-----------------------------------------------------------------------
F------------------------------7\5-5-x-x-x-x-x-x-7\5-5--x-x-x-x-x-x-x---
C---3--3-3-3-3-3--5-5-5-5-5-5--7\5-5-x-x-x-x-x-x-7\5-5--x-x-x-x-x-x-x---
G---3--3-3-3-3-3--5-5-5-5-5-5--5\3-3-x-x-x-x-x-x-5\3-3--x-x-x-x-x-x-x---
C---3--3-3-3-3-3--5-5-5-5-5-5-------------------------------------------

play twice then:
D----------------------------------------------------------------------
A----------------------------------------------------------------------
F------------------------------------3--3--3-3-3-3---5-5-5-5-5-5-5-5---
C----3--3-3--3-3-3---5--5-5--5-5-5---3--3--3-3-3-3---5-5-5-5-5-5-5-5---
G----3--3-3--3-3-3---5--5-5--5-5-5---1--1--1-1-1-1---3-3-3-3-3-3-3-3---
C----3--3-3--3-3-3---5--5-5--5-5-5-------------------------------------

Interlude(Guitar Solo?)
D-------------------------------------------
A-------6---------6--6----------------------
F---7-----5-5h7----------4--4h5-------------
C-------------------------------------3-----
G---------------------------------5---------
C-------------------------------------------

clean part:
D-----------------------------------------
A---3----3----5---5----8---8----6---6-----
F---2------2--5-----5--7-----7--5-----5---
C---0-0-------5--------5-5------3-3-------
G---0---------3-3------5--------3---------
C---0------------------5--------3---------


Lead-in to final chorus
D-----------------------------------------------------
A---3---3----5---5------------------------------------
F---2-----2--5-----5---5-5-5-5-5-5-5-5-5---5-5-5--5---
C---0-0------5---------5-5-5-5-5-5-5-5-5---5-5-5--5---
G---0--------3-3-------3-3-3-3-3-3-3-3-3---3-3-3--3---
C---0-------------------------------------------------

Comments