Nickelback - Because Of You Chords & Tabs

 

Because Of You Chords & Tabs

Nickelback Chords & Tabs

Version: 3 Type: Tab 0 ratings
1 star 2 stars 3 stars 4 stars 5 stars
comments

Because Of You Tab

                                   Nickelback
                                "Because of You"
                                  The Long Road

tabbed by: STEVE T. NELSON
STANDARD TUNING

IT WON'T BE AS DEEP AS ON THE CD
BUT AT LEAST YOU DON'T HAVE TO
DEAL WITH THE TROUBLE OF RETUNING


INTRO

e---------------------------------------------------------------------------|
B---------------------------------------------------------------------------|
G---------------------------------------------------------------------------|
D---------------------------------------------------------------------------|
A----3----3----3-----6------3-----3----3---3----6-----3----3---3---3----6---|
E----3----3----3-----6------3-----3----3---3----6-----3----3---3---3----6---|


e---------------------------------------------------------------------------|
B---------------------------------------------------------------------------|
G--------------3p0----------------------------------------------------------|
D-----------------------------------3---------------------------------------|
A----3---6p3--------6p3---7p3---6---------3---3---3---6-----3---3--3--3--6--|
E-----------------------------------------3---3---3---6-----3---3--3--3--6--|

[ Tab from: http://www.guitartabs.cc/tabs/n/nickelback/because_of_you_tab_ver_3.html ]
e---------------------------------------------------------------------------|
B---------------------------------------------------------------------------|
G---------------------------------3p0---------------------------------------|
D-----------------------------------------------------3---------------------|
A---3---3--3--3---6-----3---6p3--------6p3--7p3---6-------------------------|
E---3---3--3--3---6---------------------------------------------------------|


Verse

e------------------------------------------------|
B------------------------------------------------|
G------------------------------------------ -----| You have to do that for the
D---3----3---3---3---3---3---3-------------------|     whole verse with the right
A---3----3---3---3---3---3---3-------------------|     rythym
E---3----3---3---3---3---3---3-------------------|


Chorus x 2

e---------------------------------------------------------------------------|
B---------------------------------------------------------------------------|
G---------------------------------------------------------------------------|
D--------------------------------------------------------3--3--3--4---------|
A-----6--6--6--6--6--6--6--6--6--6---3--3--3--3--3--3----1--1--1--2---------|
E-----4--4--4--4--4--4--4--4--4--4---1--1--1--1--1--1-----------------------|


intro
intro
verse
intro
chorus
intro
verse
intro
chorus
bridge -i don't know about the bride its like the hard lick
verse
intro
intro
Comments