Nickelback - Another Hole In The Head Chords & Tabs

 

Another Hole In The Head Chords & Tabs

Nickelback Chords & Tabs

Version: 1 Type: Tab 0 ratings
1 star 2 stars 3 stars 4 stars 5 stars
comments

Another Hole In The Head Tab

Intro
|--------------------------------------|
|--------------------------------------|
|-----2-----2----2-------2-----2----2--| 
|--------------------------------------|
|-0-0---0-0---0------------------------|
|--------------------3-3---3-3---3----|

		               
|--------------------------------------|----------|
|--------------------------------------|--3-3-----|
|----2-----2----2-------2-----2----2---|--2-2-----|
|--------------------------------------|--0-0-5--|
|--------------------------------------|--0-0-5--|
|-0-0---0-0---0------5-5---5-5---5-----|--0-0-5--|

[ Tab from: http://www.guitartabs.cc/tabs/n/nickelback/another_hole_in_the_head_tab.html ]
chorus
|------------------------------------------|----------------|---------|
|-----------------------------3-3-3--------|----------------|---------|
|--2-2-2----------------------2-2-2-------|----------------|---------|
|--2-2-2-5------3-3-3-5-----0-0-0-5----|-5-5-5-5-5-----|-5-5-5-2-|
|--0-0-0-3(3x)--3-3-3-3(3x)--------3(3x)|-5-5-5-3-3(3x)-|-3-3-2-0-|
|----------------3-3-3---------------------|-5-5-5----------|---------|

|------------------|
|------------------|
|------------------|
|--2---3---0---5---|
|--0---3---0---5---|
|------3---0---5---|


|------------------------------------------|
|----------------------3-3-3-3-------------|
|----------------------2-2-2-2-------------|
|--2-2-2-2---3-3-3-3--0-0-0-0---5-5-5-5---|
|--0-0-0-0---3-3-3-3-------------5-5-5-5---|
|------------3-3-3-3-------------5-5-5-5---|

Outro 
|-----|
|--3--|
|--2--|
|--0--|
|--0--|
|--0--|
Comments