Nickelback - Animals Chords & Tabs

 

Animals Chords & Tabs

Nickelback Chords & Tabs

Version: 5 Type: Tab

Animals Tab

   
Artist: Nickelback
Song: Animals
Track: 4
Album: All The Right Reasons

Tuning: Drop C  (C G C F A D from low to high)

             ^ Sounds Great!!!!


Palm Muted: *
Let Ring: ~
Slide Up: \
Slide Down: /


______

Intro
______


Guitar 1

D--------------------------|   4x
A--------------------------|
F---9-9-----7--------------|
C---9-9--5--7--7-7-7-------|
G---7-7--5--5--7-7-7-------|
C--------5-----7-7-7-------|


Guitar 2

D--------------------------|   4x
A--------------------------|
F-----------7--------------|
C---2-2--5--7--7-7-7-------|
G---2-2--5--5--7-7-7-------|
C---2-2--5-----7-7-7-------|

(Bass and Drums Enters)

Guitar 1

D-------------------------------|
A-------------------------------|
F---9-9-----7----------5/7-7-7--|
C---9-9--5--7--7-7-7---5/7-7-7--|
G---7-7--5--5--7-7-7---3/5-5-5--|
C--------5-----7-7-7------------|


Guitar 2

D-------------------------------|
A-------------------------------|
F-----------7----------5/7-7-7--|
C---2-2--5--7--7-7-7---5/7-7-7--|
G---2-2--5--5--7-7-7---3/5-5-5--|
C---2-2--5-----7-7-7------------|

________________

Verse 1 (ending)
________________


Guitar 1

D--------------------------------------------------------------|  2x
A--------------------------------------------------------------|
F---9-9--9-9-9--9-9-9--9-9-9--9---------------7-7--7-7-7--7----|
C---9-9--9-9-9--9-9-9—-9-9-9--9-7-7--7-7-7--7-7-7--7-7-7--7----|
G---7-7--7-7-7--7-7-7--7-7-7--7-7-7--7-7-7--7-5-5--5-5-5--5----|
C-------------------------------7-7--7-7-7--7------------------|


Guitar 2

D--------------------------------------------------------------|  2x
A--------------------------------------------------------------|
F---------------------------------------------7-7--7-7-7--7----|
C---2-2--2-2-2--2-2-2--2-2-2--2-7-7--7-7-7--7-7-7--7-7-7--7----|
G---2-2--2-2-2--2-2-2--2-2-2--2-7-7--7-7-7--7-5-5--5-5-5--5----|
C---2-2--2-2-2--2-2-2--2-2-2--2-7-7--7-7-7--7------------------|


______

Chorus
______


Guitar 1

D-------------------------------|  4x
A-------------------------------|
F---9-9-----7----------5/7-7-7--|
C---9-9--5--7--7-7-7---5/7-7-7--|
G---7-7--5--5--7-7-7---3/5-5-5--|
C--------5-----7-7-7------------|


Guitar 2

D-------------------------------|  4x
A-------------------------------|
F-----------7----------5/7-7-7--|
C---2-2--5--7--7-7-7---5/7-7-7--|
G---2-2--5--5--7-7-7---3/5-5-5--|
C---2-2--5-----7-7-7------------|

(ending) „So come on Baby get in“

Guitar 1

D--------------------------|   4x
A--------------------------|
F---9-9-----7--------------|
C---9-9--5--7--7-7-7-------|
G---7-7--5--5--7-7-7-------|
C--------5-----7-7-7-------|


Guitar 2

D--------------------------|   4x
A--------------------------|
F-----------7--------------|
C---2-2--5--7--7-7-7-------|
G---2-2--5--5--7-7-7-------|
C---2-2--5-----7-7-7-------|


________________

Verse 2 (ending)
________________

Guitar 1
[ Tab from: http://www.guitartabs.cc/tabs/n/nickelback/animals_tab_ver_5.html ]
D--------------------------------------------------------------|  2x
A--------------------------------------------------------------|
F---9-9--9-9-9--9-9-9--9-9-9--9---------------7-7--7-7-7--7----|
C---9-9--9-9-9--9-9-9—-9-9-9--9-7-7--7-7-7--7-7-7--7-7-7--7----|
G---7-7--7-7-7--7-7-7--7-7-7--7-7-7--7-7-7--7-5-5--5-5-5--5----|
C-------------------------------7-7--7-7-7--7------------------|


Guitar 2

D--------------------------------------------------------------|  2x
A--------------------------------------------------------------|
F---------------------------------------------7-7--7-7-7--7----|
C---2-2--2-2-2--2-2-2--2-2-2--2-7-7--7-7-7--7-7-7--7-7-7--7----|
G---2-2--2-2-2--2-2-2--2-2-2--2-7-7--7-7-7--7-5-5--5-5-5--5----|
C---2-2--2-2-2--2-2-2--2-2-2--2-7-7--7-7-7--7------------------|

______

Chorus
______


Guitar 1

D-------------------------------|  4x
A-------------------------------|
F---9-9-----7----------5/7-7-7--|
C---9-9--5--7--7-7-7---5/7-7-7--|
G---7-7--5--5--7-7-7---3/5-5-5--|
C--------5-----7-7-7------------|


Guitar 2

D-------------------------------|  4x
A-------------------------------|
F-----------7----------5/7-7-7--|
C---2-2--5--7--7-7-7---5/7-7-7--|
G---2-2--5--5--7-7-7---3/5-5-5--|
C---2-2--5-----7-7-7------------|

(ending) „So come on Baby get in“

Guitar 1

D--------------------------|   4x
A--------------------------|
F---9-9-----7--------------|
C---9-9--5--7--7-7-7-------|
G---7-7--5--5--7-7-7-------|
C--------5-----7-7-7-------|


Guitar 2

D--------------------------|   4x
A--------------------------|
F-----------7--------------|
C---2-2--5--7--7-7-7-------|
G---2-2--5--5--7-7-7-------|
C---2-2--5-----7-7-7-------|

________________

Verse 3 (ending)
________________

Guitar 1

D--------------------------------------------------------------|  2x
A--------------------------------------------------------------|
F---9-9--9-9-9--9-9-9--9-9-9--9---------------7-7--7-7-7--7----|
C---9-9--9-9-9--9-9-9—-9-9-9--9-7-7--7-7-7--7-7-7--7-7-7--7----|
G---7-7--7-7-7--7-7-7--7-7-7--7-7-7--7-7-7--7-5-5--5-5-5--5----|
C-------------------------------7-7--7-7-7--7------------------|


Guitar 2

D--------------------------------------------------------------|  2x
A--------------------------------------------------------------|
F---------------------------------------------7-7--7-7-7--7----|
C---2-2--2-2-2--2-2-2--2-2-2--2-7-7--7-7-7--7-7-7--7-7-7--7----|
G---2-2--2-2-2--2-2-2--2-2-2--2-7-7--7-7-7--7-5-5--5-5-5--5----|
C---2-2--2-2-2--2-2-2--2-2-2--2-7-7--7-7-7--7------------------|

______

Outro
______


Guitar 1

D-------------------------------|  8x
A-------------------------------|
F---9-9-----7----------5/7-7-7--|
C---9-9--5--7--7-7-7---5/7-7-7--|
G---7-7--5--5--7-7-7---3/5-5-5--|
C--------5-----7-7-7------------|


Guitar 2

D-------------------------------|  8x
A-------------------------------|
F-----------7----------5/7-7-7--|
C---2-2--5--7--7-7-7---5/7-7-7--|
G---2-2--5--5--7-7-7---3/5-5-5--|
C---2-2--5-----7-7-7------------|