Nickelback - Animals Chords & Tabs

 

Animals Chords & Tabs

Nickelback Chords & Tabs

Version: 2 Type: Tab 0 ratings
1 star 2 stars 3 stars 4 stars 5 stars
comments

Animals Tab

Nickelback – Animals

Artist: Nickelback
Album: All the Right Reasons
Genre: Rock 
Tuning: Drop D eBGDAD

Intro
e|----------------------|
B|----------------------|
G|-7-7-7----5-----------| 
D|-7-7-7--3-3--5-5-5----|
A|-5-5-5--3-3--5-5-5----|
D|--------3----5-5-5----|

Pre Verse
e|-----------------------------------------------------|
B|-----------------------------------------------------|
G|-7-7-7----5------------------------7-7-7----5--------|
D|-7-7-7--3-3--5-5-5--8-8------------7-7-7--3-3--5-5-5-|
A|-5-5-5--3-3--5-5-5--8-8--10-10-10--5-5-5--3-3--5-5-5-|
D|--------3----5-5-5--8-8--10-10-10---------3----5-5-5-|
[ Tab from: http://www.guitartabs.cc/tabs/n/nickelback/animals_tab_ver_2.html ]
Verse “I’m driving past your house…”
e|------------------------------------------|
B|------------------------------------------|
G|---------------------------------555--55--|
D|-0-0---000--000--000---555--555--555--55--|
A|-0-0---000--000--000---555--555--333--33--|
D|-0-0---000--000--000---555--555-----------|

Chorus “Screaming no!”
e|-------------------------------------------------------------------|
B|-------------------------------------------------------------------|
G|-7-7-7----5------------------------7-7-7----5----------------------|
D|-7-7-7--3-3--5-5-5--8-8------------7-7-7--3-3--5-5-5--8-8--10-10---|
A|-5-5-5--3-3--5-5-5--8-8--10-10-10--5-5-5--3-3--5-5-5--8-8--10-10---|
D|--------3----5-5-5--8-8--10-10-10---------3----5-5-5--8-8--10-10---|

Post Chorus “So come on baby, get in…”
e|----------------------|
B|----------------------|
G|-7-7-7----5-----------| 
D|-7-7-7--3-3--5-5-5----|
A|-5-5-5--3-3--5-5-5----|
D|--------3----5-5-5----|

Song Structure:

Intro x 4
Pre Verse x 2
Verse x 2
Chorus x 4
Post Chorus x 4
Verse x 2
Chorus x 4
Post Chorus x 4
Verse x 2
Chorus x 8
Post Chorus
Comments