Nickelback - Animals Chords & Tabs

 

Animals Chords & Tabs

Nickelback Chords & Tabs

Version: 1 Type: Tab 0 ratings
1 star 2 stars 3 stars 4 stars 5 stars
comments

Animals Tab

from All the right reasons

Tabbed by Bruno Guimaraes

brunog10@yahoo.com




Riff 1 (intro)
e|----------------|
b|----------------|
g|-7-7-----5------|
D|-7-7--3--5--5-5-| X 4
A|-5-5--3--3--5-5-|
D|------3-----5-5-|

[ Tab from: http://www.guitartabs.cc/tabs/n/nickelback/animals_tab.html ]
Riff 2
e|------------------------------------------|
b|------------------------------------------|
g|-7-7-----5-------3-3/5-5/7--7-7-----5-----|
D|-7-7--3--5--5-5--3-3/5-5/7--5-7--3--5-5-5-| X 2
A|-5-5--3--3--5-5--1-1/3-3/5--5-5--3--3-5-5-|
D|------3-----5-5------------------3----5-5-|



Riff 3
e|-----------------------------------------|
b|-----------------------------------------|
g|-7--7-7--7-7--7-7--7-----------5--5-5--5-|
D|-7--7-7--7-7--7-7--7-5--5-5--5-5--5-5--5-|
A|-5--5-5--5-5--5-5--5-5--5-5--5-3--3-3--3-|
D|---------------------5--5-5--5-----------|


Listen to the song! thats it folks.
Comments