Nickel Creek - When You Come Back Down Chords & Tabs

 

When You Come Back Down Chords & Tabs

Nickel Creek Chords & Tabs

Version: 1 Type: Tab 1 rating
1 star 2 stars 3 stars 4 stars 5 stars
comments

When You Come Back Down Tab

   
##################################################################################
# This file is the author's own work and represents their interpretation of the  #
# song. You may only use this file for private study, scholarship, or research.  #
##################################################################################

Nickel Creek - "When You Come Back Down"
Tabbed by Dan S.
www.geocities.com/dangt14/ss

Capo on 4th fret

(Intro)
G
---------------------------------------
-------3---------3-------3---------3---
-----0----0----0-------0----0----0----0
---0---------0-------0---------0-------
---------------------------------------
-3-------3-3-------3-------3-3-------3-




(verse)
G
---------------------
-------3---------3---
-----0----0----0----0
---0---------0-------
---------------------
-3-------3-3-------3-


Bm
---------------------
-------3---------3---
-----4----4----4----4
---4---------4-------
-2-------2-2-------2-
---------------------


G
---------------------
-------3---------3---
-----0----0----0----0
---0---------0-------
---------------------
-3-------3-3-------3-


Bm
-----------
-------3---
-----4----4
---4-------
-2-------2-
-----------

[ Tab from: http://www.guitartabs.cc/tabs/n/nickel_creek/when_you_come_back_down_tab.html ]
AG
------------------------------------------------------
-------2--------------3---------3-------3---------3---
-----2----2---------0----0----0-------0----0----0----0
---2--------------0---------0-------0---------0-------
-0-------0--------------------------------------------
----------------3-------3-3-------3-------3-3-------3-


G
---------------------
-------3-------------
-----0----0----0----0
---0---------0----0--
---------------------
-3-------3-3----2----


Bm
---------------------
-------3---------3---
-----4----4----4----4
---4---------4-------
-2-------2-2-------2-
---------------------


G
---------------------
-------3---------3---
-----0----0----0----0
---0---------0-------
---------------------
-3-------3-3-------3-
 

Bm
-----------
-------3---
-----4----4
---4-------
-2-------2-
-----------


AG
------------------------------------------------------
-------2--------------3---------3-------3---------3---
-----2----2---------0----0----0-------0----0----0----0
---2--------------0---------0-------0---------0-------
-0-------0--------------------------------------------
----------------3-------3-3-------3-------3-3-------3-




(chorus)(begin strumming or follow same picking pattern)



EADGBE
G=320033
Bm=X24430
A=002220
D=XX0232
Comments