Nickel Creek - This Side Chords & Tabs

 

This Side Chords & Tabs

Nickel Creek Chords & Tabs

Version: 1 Type: Tab 0 ratings
1 star 2 stars 3 stars 4 stars 5 stars
comments

This Side Tab

This Side
Nickelcreek
This Side

For better or for worse, tabbed by Robby
Questions, complaints to lovedbygsus@yahoo.com

Intro1
E[-0--0---0-0h2---2s4-0---0-0---0---0------0---------]
B[---0--0-------0-------4--------------2s4---4-2-0---]
G[----------------------------2---2--2-------------2-]

E[----0---0-0h2---2s4-0---0-0---0---0------0---------]
B[---0--0-------0-------4--------------2s4---4-2-0---]
G[-1--------------------------2---2--2-------------2-]

Intro2
E[--00--00--00--00---00--00--00--00-]
B[--00--00--00--00---00--00--00--00-]
G[--99--66--22--24---99--66--22--24-]
D[--99--66--22--24---99--66--22--24-]
A[--77--44--00--22---77--44--00--22-]
D[--00--xx--xx--xx---00--xx--xx--xx-]

Verse1a
E[--00--00--00--00---00--00--00--0x-]
B[--00--00--00--00---00--00--00--07-]
G[--99--66--22--24---99--66--22--28-]
D[--99--66--22--24---99--66--22--26-]
A[--77--44--00--22---77--44--00--2x-]
D[--00--xx--xx--xx---00--xx--xx--x8-]

Verse1b
E[-00--xx--00--00----00--00--00--00--------------------
B[-00--77--00--00----00--00--00--00--------------------
G[-66--88--22--44----99--66--22--44--------------------
D[-66--66--22--44----99--66--22--44--------------------
A[-44--xx--00--22----77--44--00--22--------------------
D[-xx--88--xx--xx----00--xx--xx--xx--------------------

Chorus
E[-00-00--00-00---00-00---00-00---
B[-00-00--00-00---00-00---00-00--
G[-22-22--44-44---66-66---22-22---
D[-22-22--44-44---66-66---44-22---
A[-00-00--22-22---44-44---44-00--
D[-xx-xx--xx-xx---xx-xx---xx-xx---

E[-00-00---00-00---00-00--
B[-00-00---00-00---00-00--
G[-44-44---66-66---22-44--
D[-44-44---66-66---22-44--
A[-22-22---44-xx---00-22--
D[-xx-xx---xx-66---xx-xx--

Intro1&2z*

Verse2a
E[--00--00--00--00---00--00--00--0x-]
B[--00--00--00--00---00--00--00--07-]
G[--99--66--22--24---99--66--22--28-]
D[--99--66--22--24---99--66--22--26-]
A[--77--44--00--22---77--44--00--2x-]
D[--00--xx--xx--xx---00--xx--xx--x8-]

Verse2b
E[-00--xx--00--00----00--00--00--00--------------------
B[-00--77--00--00----00--00--00--00--------------------
G[-66--88--22--44----99--66--22--44--------------------
D[-66--66--22--44----99--66--22--44--------------------
A[-44--xx--00--22----77--44--00--22--------------------
D[-xx--88--xx--xx----00--xx--xx--xx--------------------

Chorus2
E[-00-00--00-00---00-00---00-00---
B[-00-00--00-00---00-00---00-00--
G[-22-22--44-44---66-66---22-22---
D[-22-22--44-44---66-66---44-22---
A[-00-00--22-22---44-44---44-00--
D[-xx-xx--xx-xx---xx-xx---xx-xx---

E[-00-00---00-00---00-0x--
B[-00-00---00-00---00-07--
G[-44-44---66-66---22-48--
D[-44-44---66-66---22-46--
A[-22-22---44-xx---00-2x--
D[-xx-xx---xx-66---xx-x8--

Mandolin Solo (Transcribed for guitar)
E[---------------------------9-7-7-9-12-9-----7s9-7s9-12-12-]
B[-5-----5---5s7-7s9-7-5-7-9--------------12--7s9-7s9-12-12-]
G[---6p4---6--------6-6-------------------------------------]

E[--------------------7-7-----9-9--------12-]
B[---7-9-9p7p5------9-----9-9-----7-9-12----]
G[-9-----------6--9-------------------------]
[ Tab from: http://www.guitartabs.cc/tabs/n/nickel_creek/this_side_tab.html ]
Chords Used During Mandolin Solo
E[-0-0---0-0---0-0---0-0------
B[-0-0---0-0---0-0---0-0-----
G[-6-6---6-6---6-6---2-2------
D[-6-6---6-6---6-6---2-2------
A[-4-x---4-x---4-x---0-0------
D[-x-6---x-6---x-6---x-x------

Violin Solo

Chords Used During Violin Solo
E[-0-0---0-0---000-----0-0---0-0---000000
B[-0-0---0-0---000-----0-0---0-0---000000
G[-4-4---6-6---246-----4-4---6-6---245678
D[-4-4---6-6---467-----4-4---6-6---245678
A[-2-2---4-4---467-----2-2---4-x---023456
D[-x-x---x-x---xxx-----x-x---x-6---xxxxxx

Verse3a
E[--00--00--00--00---00--00--00--0x-]
B[--00--00--00--00---00--00--00--07-]
G[--99--66--22--24---99--66--22--28-]
D[--99--66--22--24---99--66--22--26-]
A[--77--44--00--22---77--44--00--2x-]
D[--00--xx--xx--xx---00--xx--xx--x8-]

Verse3b
E[-00--xx--00--00----x0--00--00--00--------------------
B[-00--77--00--00----x0--00--00--00--------------------
G[-66--88--22--44----x9--66--22--44--------------------
D[-66--66--22--44----x9--66--22--44--------------------
A[-44--xx--00--22----x7--44--00--22--------------------
D[-xx--88--xx--xx----x0--xx--xx--xx--------------------

Chorus2
E[-00-00--00-00---00-00---00-00---
B[-00-00--00-00---00-00---00-00--
G[-22-22--44-44---66-66---22-22---
D[-22-22--44-44---66-66---44-22---
A[-00-00--22-22---44-44---44-00--
D[-xx-xx--xx-xx---xx-xx---xx-xx---

E[-00-00---00-00---00-0x--
B[-00-00---00-00---00-07--
G[-44-44---66-66---22-48--
D[-44-44---66-66---22-46--
A[-22-22---44-xx---00-2x--
D[-xx-xx---xx-66---xx-x8--

E[-00-00---00-0x--
B[-00-00---00-07--
G[-66-66---22-48--
D[-66-66---22-46--
A[-44-xx---00-2x--
D[-xx-66---xx-x8--

Intro1&2z*

Outro (slightly varies)
E[-0--0---0-0h2---2s4-0---0-0---0---0------0---------]
B[---0--0-------0-------4--------------2s4---4-2-0---]
G[----------------------------2---2--2-------------2-]

E[----0---0-0h2---2s4-0---0-0---0---0------0----------]
B[---0--0-------0-------4--------------2s4---4-2-0----]
G[-1--------------------------2---2--2-------------2-1]




FLOW

Intro1
Intro2

Verse1a
One day you’ll see her and you’ll know what I mean
Take her or leave her, she will still be the same

Verse1b
She’ll not try to buy you with her time
But nothing’s the same, as you will see when she’s gone

Chorus
It’s foreign on this side, and I’ll not leave my home again
There’s no place to hide, and I’m nothing but scared

Guitar plays Intro2 while mandolin plays Intro1*

Verse2
You dream of colors that have never been made
You imagine songs that have never been played
They will try to find you and your mind
But only the curious have something to find

Chorus2
It’s foreign on this side, and the truth is a bitter friend
Reasons few have I, to go back again

Mandolin Solo

Violin Solo

Verse3
Your first dawn blinded you, left you cursing the day
Entrance is crucial and it's not without pain
There's no path to follow once you're here
You'll climb up the slide and then you'll slide down the stairs

Chorus3
It's foreign on this side
But it feels like I'm home again
There's no place to hide
But I don't think I'm scared
There’s no place to hide
But I don't think I'm scared
There’s no place to hide
But I don't think I'm scared

Outro


If you like Nickelcreek, check out my band at
www.celede.net.  We can play some of Nickelcreek’s songs.
Comments