Nick Drake - Horn Chords & Tabs

 

Horn Chords & Tabs

Nick Drake Chords & Tabs

Version: 1 Type: Tab 0 ratings
1 star 2 stars 3 stars 4 stars 5 stars
comments

Horn Tab

   
Nick Drake - Horn (from the album "Pink Moon")
Tabbed by: Francisco Stagnaro (BA, Argentina)


Tuning:

1  e
2  B
3  G
4  C#
5  A
6  e



Starts picking 8 times the D string.

[ Tab from: http://www.guitartabs.cc/tabs/n/nick_drake/horn_tab.html ]
   A		      B                  C                  D                  e
e |-----8--9----4--| |----2--1-----4--| |----2--1--------| |----------------| |----------------|
B |----------------| |----------------| |-------------2--| |----1--2--------| |--1------2------|
G |----------------| |----------------| |----------------| |-------------1--| |----------------|
D |--0-------0-----| |--0-------0-----| |--0-------0-----| |--0-------0-----| |--0------0------|
A |----------------| |----------------| |----------------| |----------------| |----------------|
E |----------------| |----------------| |----------------| |----------------| |----------------|

                     |----------------| |----------------| |----------------| |----------------|
                     |----7--6-----9--| |----7--6--------| |----------------| |----------------|
                     |----------------| |-------------6--| |----5--6-----1--| |--5------6------|
                     |--0-------0-----| |--0-------0-----| |--0-------0-----| |--0------0------|
                     |----------------| |----------------| |----------------| |----------------|
                     |----------------| |----------------| |----------------| |----------------|


A, B, A, B, C, D, D, e

A, B, A, B, C, e
Comments