Nicholas Tse - Let Me Die Chords & Tabs

 

Let Me Die Chords & Tabs

Nicholas Tse Chords & Tabs

Version: 1 Type: Tab 0 ratings
1 star 2 stars 3 stars 4 stars 5 stars
comments

Let Me Die Tab

   
Version 1.0
Written: Jowii


Let Me Die
Verse 1

          C                     G                  Am

e----------0------------------3--------------------0-------------------------|
B-------1------1-----------3------3-------------1-----1----------------------|
G----0------------0-----0------------0-------2-----------2-------------------|
D----------------------------------------------------------------------------|
A--3-------------------------------------------------------------------------|
D--------------------3--------------------0----------------------------------|

    Are we at war tonight   will there be angels whispering to me goodnight

            F                               C

e-----------1------------------------------------1---------------------------|
B--------1------1----------------------------1-------------------------------|
G-----3------------2-----------------------0---0-----------------------------|
D----------------------------------------2-----------------------------------|
A--------------------------------------3-------------------------------------|
D--1-------------------------------------------------------------------------|

    Don't wake when lightning strikes      *Interval by Piano(not necesarry)

          C                     G                  F

e----------0------------------3--------------------1-------------------------|
B-------1------1-----------3------3-------------1------1---------------------|
G----0------------0-----0------------0-------3------------2------------------|
D----------------------------------------------------------------------------|
A--3-------------------------------------------------------------------------|
D--------------------3--------------------1----------------------------------|


    My heart for you is true Let no one take that from you Time is running tight

          Am - G

e-----------0--3-------------------------------------------------------------|
B--------1--------3----------------------------------------------------------|
G----------------------------------------------------------------------------|
D-----2----------------------------------------------------------------------|
A--0-------------------------------------------------------------------------|
D----------------------------------------------------------------------------|


    Can't change from wrong to right

             F                 em               G 2x strum one me in the end)

e----------1--------------------0--------------------3-----------------------|
B-------1------1-------------0------0-------------3-----3--------------------|
G-----------------2--------------------0-------0-----------0-----------------|
D----3--------------------2--------------------------------------------------|
A----------------------2-----------------------------------------------------|
D--1----------------------------------------3--------------------------------|


    So I'll close my eyes and dream a little  Just like how we used to be
baby

C                     G                  F

e----------0------------------3--------------------1-------------------------|
B-------1------1-----------3------3-------------1------1---------------------|
G----0------------0-----0------------0-------3------------2------------------|
D----------------------------------------------------------------------------|
A--3-------------------------------------------------------------------------|
D--------------------3--------------------1----------------------------------|


    Its time to say farewell now No need to cry of feelings sorrow Oh it's alright

          Am - G

e-----------0--3-------------------------------------------------------------|
B--------1--------3----------------------------------------------------------|
G----------------------------------------------------------------------------|
D-----2----------------------------------------------------------------------|
A--0-------------------------------------------------------------------------|
D----------------------------------------------------------------------------|


    All in the book of life

             F                 em               G sus           G(strum 1 time)

e----------1--------------------0--------------------3------------------3-----|
B-------1------1-------------0------0-------------1-----3------------3-----3--|
G-----------------2--------------------0-------0-----------0------0-----------|
D----3--------------------2---------------------------------------------------|
A----------------------2------------------------------------------------------|
D--1----------------------------------------3------------------3--------------|


   Heaven grant me one last wish I beg you Let me say these words before I go

Chorus:(DISTORTION ON!)

         C           G           Am                 G                F

e--------0-----------3------------0-----------3---------3----------3--1------|
B--------1-----------3------------1--------------3--3/5--------1--------1----|
G-----0-----0-----0-----0------2-----2-----0-----------------2---2--------0--|
D----------------------------------------------------------------------------|
A--3------------------------0------------------------------------------------|
D--------------3------------------------3------------------1-----------------|

     I will love you till the end of time Every breath of mine I'll hold you by my side 
I'll rest in peace my sweetheart would you

         G
[ Tab from: http://www.guitartabs.cc/tabs/n/nicholas_tse/let_me_die_tab.html ]
e-----------3----------------------------------------------------------------|
B--------3-------------------------------------------------------------------|
G-----0----------------------------------------------------------------------|
D----------------------------------------------------------------------------|
A----------------------------------------------------------------------------|
D--3-------------------------------------------------------------------------|

          Let me die in your arms with you


 C           G           Am                 G

e--------0-----------3------------0-----------3---------3--3/1----|
B--------1-----------3------------1--------------3--3/5--------1--|
G-----0-----0-----0-----0------2-----2-----0----------------------|
A--3------------------------0-------------------------------------|
D--------------3------------------------3-------------------------|

     Only you can stop the rain tonight

Only you can change my world from black to white

         F            Fm          G

e--------1-----------1--------------3----------------------------------------|
B-----------1-----------1--------3-------------------------------------------|
G-----2-----------1-----------0----------------------------------------------|
D----------------------------------------------------------------------------|
A----------------------------------------------------------------------------|
D--1-----------1-----------3-------------------------------------------------|

           So I'll close my eyes and dream a little more


Verse 2 (DISTORTION ON!)

        C                     G                      F

e-----------0-----------------3-------------------1----3--1-------------------|
B--------1------1----------3-----3-------------1-------------1----------------|
G-----2-----------------------------0-----------------------------------------|
D-----------------------0------------------3----------------------------------|
A--3--------------------------------------------------------------------------|
D--------------------3-------------------1------------------------------------|

       Are we at war tonight  Don't wake when lightning strikes

        Am-G                   F             Fm

e-----------3----------------1-1--------------1------------------------------|
B--------1-----3--------------1-1----------1------1--------------------------|
G-----2-----------0--------------2------1------------1-----------------------|
D-------------------------2--------------------------------------------------|
A--0-------------------------------------------------------------------------|
D----------------------3-------------0---------------------------------------|

        Heaven grant me one last wish I beg you Let me say

              Gsus                           G

e--------3--------3----------------------3-----------------------------------|
B-----------1--------1-------------3-----------3-----------------------------|
G-----0--------0--------0-------0-----0-----0-----0--------------------------|
D----------------------------------------------------------------------------|
A----------------------------------------------------------------------------|
D--3-------------------------3-----------------------------------------------|

         these words before I go

e----------------------------------------------------------------------------|
B----------------------------------------------------------------------------|
G----------------------------------------------------------------------------|
D----------------------------------------------------------------------------|
A----------------------------------------------------------------------------|
D----------------------------------------------------------------------------|


Back to Chorus *
I will love you till the end of time

Every breath of mine
I'll hold you by my side
But I'll rest in peace
My sweetheart would you
Let me die in your arms with you
Only you can stop the rain tonight
Only you can get me straight to fight
Till the sky is burning
It's the end of time

Bridge (Distortion ON!)
Look ahead tomorrow
Long and winding road
Keep the faith of mine
Don't let it go
You're the only reason
That I'm growing cold
What would I do
Without you

F|Am|Dm|Am|F|Am|G|F|G|G
(just use this pattern)
e-------0--------------|
B-------0--------------|
G----0-----0-----------|
D----------------------|
A----------------------|
D--0-------------------|

Back to Chorus
end strum chord C once


Strumming section
verse 1
C|G|Am|F||
C|G|F |Am-G|F|em|Dm|G||
C|G|F |Am-G|F|em|Gsus|G||

Chorus
C-G|Am-G|F-em|Dm|G||
C-G|Am-G|F-em|Dm-Fm|Gsus|G||

Verse 2
C|G|F |Am-G|F|em|Gsus|G

Back to chorus

Back to bridge same as the plucking

Back to chorus

Ps: strumming pattern d=down,u=up
*             *
d d d u u d - d u d d d u u d
for chorus it is just flexible.For 1 |  | mean one *
=End=
^_^

Thanx to Suwanto for the support in figuring out the chords
Comments