Nicho Hinojosa - Te Amo Chords & Tabs

 

Te Amo Chords & Tabs

Nicho Hinojosa Chords & Tabs

Version: 1 Type: Tab 0 ratings
1 star 2 stars 3 stars 4 stars 5 stars
comments

Te Amo Tab

   
Esta canción +/- la saque yo (Martin Damian Cuallo), en algunas partes me apoye
de una page, se la quiero dedicar a Paloma, creo que la letra de la cancion lo dice todo...
TE AMO.

INTRO:
    D  D2     E  Esus4       D  D2     E   Esus4       D  D2       A2
e --2--0-----------------0---2--0------------------0---2--0----------------
B -------3-------------0----------3--------------0------------3/2-----0----
G ---------2--1------2--------------2--1-------2------------------------2--
D --0---------2----2---------0---------2-----2---------0------------------2
A ------------2--2---------------------2---2-----------------------0-------
E -------------------------------------------------------------------------

e --------------||
B -0-----0------||
G ---2-----2----||
D -----2-----2--||
A --------------||
E --------------||

Verse:

    D          E  Esus4      D          E  Esus4      D
e ------2-------------0----------2-------------0------------2-----
B ----3---3----0--------0------3---3----0--------0-------3-----3--
G ----------2--1--1/2-----2----------2--1--1/2-----2------------2-
D --0----------2-------------0----------2-------------0-----------
A -------------2------------------------2-------------------------
E ----------------------------------------------------------------
   
   A2               D          F#m9
e ----------------------2---------4-----4-----2-----------------|
B ---0-----0-----0----3---3---------2-----2---------------------|
G -----2-----2--------------2---------2-----2-------------------| Bis.
D -------2-----2----0-------------------------------------------|
A -0---------------------------2--------------------------------|
E --------------------------------------------------------------|


 D                  E   Esus4
Ay si nos hubieran visto
   D              E  Esus4       D  A
Estábamos ahí sentados frente a frente
 D        E            F#m F#m9 F#m
No podía faltarnos la luna
   Bm7                   E   Esus4
Y hablábamos de todo un poco
   Bm7              E  Esus4       D  A
Y todo nos causaba risa como dos tontos
   D          E      F#m   F#m9
Y yo que no veía la hora
      Bm7                      E
De tenerte en mis brazos y poderte decir.
[ Tab from: http://www.guitartabs.cc/tabs/n/nicho_hinojosa/te_amo_tab.html ]
   A                 D9               E     A 
Te Amo, desde el primer momento en que te ví
         D         D/C#        Bm7               E  Esus4
Y hace tiempo te buscaba, ya te imaginaba así
   A               D9        E        A 
Te Amo, aunque no es tan fácil de decir
     D      D/C#           Bm7              E  Esus4 E  Esus4
Y defino lo que siento con éstas palabras
   A    D        A
Te Amo, uhuh, Te Amo. 

  D               Bm7      
e--------2--------------------5-
B------3---3------------3----3--
G----2-------2--------2-----2---
D--0----------------4------4----
A--------------4--2-------------
E-------------------------------

       D                    E  Esus4
Y de pronto nos rodeó el silencio
         D         E  Esus4       D  A
Y nos miramos fijamente uno al otro
     D        E     F#m  F#m9
Tus manos entre las mías
     Bm7                  E   Esus4
Tal vez nos volveremos a ver,
   Bm7              E  Esus4        D  A
Mañana no sé si podré, Qué estás jugando
     D          E           F#m   F#m9
Me muero si no te vuelvo a ver
     Bm7                      E
Y tenerte en mis brazos y poderte decir.

   A                 D9               E     A 
Te Amo, desde el primer momento en que te ví
         D      D/C#        Bm7               E Esus4  E  Esus4
Y hace tiempo te buscaba, ya te imaginaba así
   A               D9        E        A 
Te Amo, aunque no es tan fácil de decir
     D        D/C#      Bm7              E  Esus4 E  Esus4
Y defino lo que siento con éstas palabras

   A          D           A             D    F#m7  Bm7          
e-------0-----------2-----------0-------------------------2-------5-
B-----2---2-------3---3-------2---2--------3-----2----2H3---3----3--
G---2-------2---2-------2---2-------2----2-----2-----2--------2-2---
D-------------0------------------------0----------------------------
A-0-----------------------0------------------4-----2----------------
E-------------------------------------------------------------------


  Te Amo,      uhuh,       Te Amo...  

Te amo.
        e-------2-0---5-----2-----1-------------0----------7-
        B-----3---------3-----3-----2-------2h3---2-------5--
        G---2-------2-----2-----2---------2---------2---6----        
        D-0-----------------------------2-------------7------
        A---------------2-----2-------0----------------------
        E----------------------------------------------------

      EADGBe
F#m9  244224
D2    x00230
Esus4 022200
D/C#  x40232
A2    002200
Comments