Nexxus - Ill Never Go Chords & Tabs

 

Ill Never Go Chords & Tabs

Nexxus Chords & Tabs

Version: 1 Type: Tab 0 ratings
1 star 2 stars 3 stars 4 stars 5 stars
comments

Ill Never Go Tab

   
|----------------------------------------------------------------|
|		     I'll never go - Nexxus                      |
|----------------------------------------------------------------|


Tabbed by:ganjamel

Email:ganjah_69@yahoo.com

Nexxus - Philippines' pop rock band during mid-90's.Sorry,don't  
         know much info about this band.All i know is they have  
         great songs especially this one.Hope you'll enjoy!




Tuning:standard(EADGBE)

Intro:D (clean tone)

 |-----5------5------5-----5--|
 |---5------5------5-----5----|
 |-7------7------7-----7------|
 |----------------------------|
 |----------------------------|
 |----------------------------|

Verse chords :D-F#m-Bm-G,Em-A-F#m-Bm,Em-G-A-D (clean tone)

Chorus chords:D-G/D-Bm-Em-G-Bm-Em-A (with distortion)
 
[ Tab from: http://www.guitartabs.cc/tabs/n/nexxus/ill_never_go_tab.html ]
Guitar solo:(with distortion and slight delay effect)
       Bm          A          G
       p.h.       sl       sl  sl             sl
e|--------------------------------------------------14-15-17-----|
B|---------------------------------7-8-10----/15-17--------------|
G|-7---6b7-6------------------/7-9-------------------------------|
D|-----------7--4-4/9--7-----------------------------------------|
A|------------------------4\-------------------------------------|
E|---------------------------------------------------------------|
 
   D                              Bm                  A
             |-hold-|                                           
e|----------------------------------------17---------------------|
B|-15-17-17b19--------15---15-17-17b19-15-----15--17-17b19-15-14~|
G|---------------------------------------------------------------|
D|---------------------------------------------------------------|
A|---------------------------------------------------------------|
E|---------------------------------------------------------------|
     
   G
              p.h.                        P.M.      P.M.
e|---------------------------------------------------------------|
B|------------15------------------------------------------12-----|
G|-11b12-9--------------------------------------14---------------|
D|---------12-----11b12-11b12-11----------12-14-----12-14--------|
A|-------------------------------12-10---------------------------|
E|---------------------------------------------------------------|

                                                i'll never go..... 
                                                D             G/D
   P.M.      P.M.      P.M.          feedback------------|
e|---------------------------------------------------------------|
B|-------14--------14--------15h17-15----------------------------|
G|---------------------------------------------------------------|
D|-12-14-----12-14-----12-14-------------------------------------|
A|---------------------------------------------------------------|
E|---------------------------------------------------------------|



| /  slide up       b    bend
| \  slide down     p.h. pinch harmonic
| h  hammer-on      P.M. palm muting
| p  pull-off
| ~  vibrato
| +  harmonic
| x  Mute note


==================================================================
Comments