Nexxus - Ill Never Go Chords & Tabs

 

Ill Never Go Chords & Tabs

Nexxus Chords & Tabs

Version: 1 Type: Bass Tab 0 ratings
1 star 2 stars 3 stars 4 stars 5 stars
comments

Ill Never Go Bass Tab

   
title:ill never go
artist:nexxus 
tab by:john smith soriano;viper_lover29@yahoo.com

intro:D(2x)

E-----------5--------------------|
A--0-5-------5-7------------7-5--|
D----------------4-5-4---5-4-----|
G--------------------------------|

verse I:D-F#m-Bm-G
       D                 F#m              Bm                G
E----------------|--0-2--0-2-2-0-2|----------------|--0-5--0-5-5-0-5|
A--0-5--0-5-5-0-5|----------------|--0-2--0-2-2-0-2|----------------|
D----------------|----------------|----------------|----------------|
G----------------|----------------|----------------|----------------|
  you..........      those......      and telling....   me.......

refrain:Em-A-F#m-Bm-Em-G-A
[ Tab from: http://www.guitartabs.cc/tabs/n/nexxus/ill_never_go_btab.html ]
      Em        A    F#m    Bm      Em        G         A
E--0-3-2-0|--0-3-5-|--3--2|--2-4-2|---0--0|--3--0-3-0-3|--5|
A---------|--------|------|-------|--2----|------------|---|
D---------|--------|------|-------|-------|------------|---|
G---------|--------|------|-------|-------|------------|---|
  every...   day...  you...  way..  for...  told you..   i love you...

repeat intro:(once)


verse II:(do verse I)


chorus:D-G-Bm-Em;G-Bm-Em-A

     D        G       Bm      Em        G        Bm    Em    A
E--------|--3--3-3|--------|--0--0-0|--3--3-3|--------|--0|--0-5|
A--5--5-5|--------|--2--2-2|--------|--------|--2--2-2|---|-----|
D--------|--------|--------|--------|--------|--------|---|-----|
G--------|--------|--------|--------|--------|--------|---|-----|
   ill...   far..    even...   you..  so....   this.. never.. far..

repeat intro:(once)

repeat verse II:

repeat refrain:

repeat chorus:


adlib:Bm-A-G-D(2x)

    Bm        A        G         D
E--7--7-7|--5--5-5|--3--3-3|--10--10-10|
A--------|--------|--------|-----------|    (2x)
D--------|--------|--------|-----------|
G--------|--------|--------|-----------|


repeat chorus:(2x)

repeat intro:
Comments