Newtral Fury - Elements Of Suprise Chords & Tabs

 

Elements Of Suprise Chords & Tabs

Newtral Fury Chords & Tabs

Version: 1 Type: Tab 0 ratings
1 star 2 stars 3 stars 4 stars 5 stars
comments

Elements Of Suprise Tab

   
Artist: Newtral Fury
Song: Elements of Suprise
Album: Contain Every Reason
Year: 2002

Intro
E|-0-0-00000-|
B|-0-0-00000-|
G|-0-0-00000-|
D|-0-0-00000-|
A|-2-2-22222-|
E|-3-3-33333-|

Verse
E|-0-0-000000----------------|
B|-0-0-000000----------------|
G|-0-0-000000-333------------|
D|-0-0-002222-333-33555-55-0-| x4
A|-2-2-222222-111-11333-33-0-|
E|-3-3-333000-111-11-------0-|

Chorus (Distorted)
E|----------------------|
B|----------------------|
G|----------------------| x4
D|--------333-----------|
A|-5-5-5552223-3-33-555-|
E|-3-3-3330001-1-11-333-|
[ Tab from: http://www.guitartabs.cc/tabs/n/newtral_fury/elements_of_suprise_tab.html ]
Verse
E|-0-0-000000----------------|
B|-0-0-000000----------------|
G|-0-0-000000-333------------|
D|-0-0-002222-333-33555-55-0-| x4
A|-2-2-222222-111-11333-33-0-|
E|-3-3-333000-111-11-------0-|

Solo
E|-00-00-0000/0-0-000-|
B|-00-00-0000/0-0-000-|
G|-00-00-0000/0-0-000-|
D|-00-00-0000/0-0-000-| x4
A|-11-11-1111/2-2-222-|
E|-10-10-1010/3-3-333-|

Chorus (Distorted)
E|----------------------|
B|----------------------|
G|----------------------| x8
D|--------333-----------|
A|-5-5-5552223-3-33-555-|
E|-3-3-3330001-1-11-333-|

End
E|-0-|
B|-0-|
G|-0-| [Let it ring out after the x8 chorus]
D|-0-|
A|-2-|
E|-3-|

Tabbed by: Zein124 [Lead Guitarist]
darkmessanger36@hotmail.com
Any questions/comments send me a message
Comments