Newsboys - Take Me To Your Leader Chords & Tabs

 

Take Me To Your Leader Chords & Tabs

Newsboys Chords & Tabs

Version: 2 Type: Tab 1 rating
1 star 2 stars 3 stars 4 stars 5 stars
comments

Take Me To Your Leader Tab

This song is intended for 2 guitars, but it's easy to play with one.
It should be completely perfect. If you've spotted any errors, Email me at ldswift@hotmail.com


Intro
E---------------------------------------------------------------------------------
B---------------------------------------------------------------------------------
G-------------------------3--3----------------------------3--3--------------------
D---------------------------------------------------------------------------------
A-------2-----2-----2-----3--3----------2-----2-----2-----3--3--------------------
E----3-----3-----3-----3-------------3-----3-----3-----3--------------------------


E---------------------------------------------------------------------------------
B---------------------------------------------------------------------------------
G-------------------------3--3----------------------------------------------------
D---------------------------------------------------------------------------------
A-------2-----2-----2-----3--3----------0-----0-----0-----5--5--------------------
E----3-----3-----3-----3-------------1-----1-----1-----3-----3--------------------


E---------------------------------------------------------------------------------
B---------------------------------------------------------------------------------
G-------------------------3--3----------------------------3--3--------------------
D---------------------------------------------------------------------------------
A-------2-----2-----2-----3--3----------2-----2-----2-----3--3--------------------
E----3-----3-----3-----3-------------3-----3-----3-----3--------------------------


E---------------------------------------------------------------------------------
B---------------------------------------------------------------------------------
G-------------------------3--3----------------------------------------------------
D---------------------------------------------------------------------------------
A-------2-----2-----2-----3--3----------0-----0-----0-----5--5--------------------
E----3-----3-----3-----3-------------1-----1-----1-----3-----3--------------------


E---------------------------------
B---------------------------------
G---------------------------------
D---------------------------------
A-------0-----0-----0-----5--5----
E----1-----1-----1-----3-----3----


Verses
E-------------------------------------------------------------
B---4-x--4---4--x--4--x--4--x---4---x--4--4--3-x-3----x---1---
G-------------------------------------------------------------
D-------------------------------------------------------------
A-------------------------------------------------------------
E-------------------------------------------------------------
    Isabelle is a belly dancer with a kleptomaniac's restraint
[ Tab from: http://www.guitartabs.cc/tabs/n/newsboys/take_me_to_your_leader_tab_ver_2.html ]
E---------------------------------------------------------------------------------
B---1-------1-/3---4-x--4----4----4--4----4---x--/6---x---4---x---3-------x---1---
G---------------------------------------------------------------------------------
D---------------------------------------------------------------------------------
A---------------------------------------------------------------------------------
E---------------------------------------------------------------------------------
    Tried stealing Helena's hand basket, made a fast getaway but McQueen she ain't

At the courtroom, Joshua judges her ruthlessly on account of Ruth walkin' out on him
In the bighouse, Isabelle is a-telling all to the chaplain who's become her friend
She said

Chorus
E-----3------3--xxxxxx--3--3-           E-----1----1---xxxxxx------3--3-----------
B-----3------3--xxxxxx--5--5-           B-----1----1---xxxxxx------3--3-----------
G-----4------4--xxxxxx--5--5-           G-----2----2---xxxxxx------4--4-----------
D-----5------5--xxxxxx--5--5-           D-----3----3---xxxxxx------5--5-----------
A-----5------5--xxxxxx--3--3-           A-----3----3---xxxxxx------5--5-----------
E-----3------3--xxxxxx-------           E-----1----1---xxxxxx------3--3-----------
   I don't know why you care,
   I don't know what's out there,
   I don't know where or how             Just take me to your leader now
                                              take me to your leader now

Verse 2 (same on guitar as 1st verse)
Justin is adjustin' to the odor from Theodore's evergreen incense
But aroma therapy don't make him younger than Oliver's all liver supplements
His late mate Merilee merrily said immortality can't be bought in a jar
This just in: Justin's had enough of cure-alls, gonna quiz the neighbor kid with the fish on his car
He said

Chorus 2
I don't know why you care,
I don't know what's out there,
I don't know how it's done
Just take me to your leader, son
Take me to your leader, son


Bridge
E--7--7----5--5--x--7--7----5--5--x--7--7----5--5--x--7--7----5--5--x--7\----------
B--7--7----5--5--x--7--7----5--5--x--7--7----5--5--x--7--7----5--5--x--7\----------
G--8--8----6--6--x--8--8----6--6--x--8--8----6--6--x--8--8----6--6--x--8\----------
D--9--9----7--7--x--9--9----7--7--x--9--9----7--7--x--9--9----7--7--x--9\----------
A--9--9----7--7--x--9--9----7--7--x--9--9----7--7--x--9--9----7--7--x--9\----------
E--7--7----5--5--x--7--7----5--5--x--7--7----5--5--x--7--7----5--5--x--7\----------


Chorus 3
E---------5---5--xxxxxx---5--5-------      E-----------3---3--xxxxxx---5---5----
B---------5---5--xxxxxx---7--7-------      B-----------3---3--xxxxxx---5---5----
G---------6---6--xxxxxx---7--7-------      G-----------4---4--xxxxxx---6---6----
D---------7---7--xxxxxx---7--7-------      D-----------5---5--xxxxxx---7---7----
A---------7---7--xxxxxx---5--5-------      A-----------5---5--xxxxxx---7---7----
E---------5---5--xxxxxx--------------      E-----------3---3--xxxxxx---5---5----
    They don't know why we care,
    They don't know what's out there,
    They don't know where or how,             Let's take 'em to our Leader now
    They see we've got the joy,
    They see us live it, oi
    It's real, it's free, it's fun            Let's take 'em to our Leader's Son
                                                    Take 'em to our Leader's Son
                                                    Take 'em to our Leader's Son
Comments