Newsboys - Take Me To Your Leader Chords & Tabs

 

Take Me To Your Leader Chords & Tabs

Newsboys Chords & Tabs

Version: 3 Type: Bass Tab 0 ratings
1 star 2 stars 3 stars 4 stars 5 stars
comments

Take Me To Your Leader Bass Tab

   
Title: Take Me to Your Leader
Artist: Newsboys
Album: Take Me to Your Leader

Instrument: 4 String Bass

Tabbed by: RighteousDuncan (Duncanthebassplayer@Msn.com)

Tuning: Standard (E A D G)

Listen to the song for timing

There are two ways to play the introduction on bass:

Intro 1
G|-----------------------------------------------------------------||
D|-----------------------------------------------------------------||
A|-----2-----2----2--3-3-----2----2---2-3-3-----0---0---0--2-2-----||
E|--3-----3----3-----------3----3---3--------1---1---1-------------||

G|-----------------------------------------||-----------------------||
D|-----------------------------------------||-----------------------||
A|-----2-----2----2--3-3-----2----2---2-3-3||-----0---0---0--2-2----|| 
E|--3-----3----3-----------3----3---3------||--1---1---1------------||

G||-----------------------||
D||-----------------------||
A||-----0---0---0--2-2----|| 
E||--1---1---1------------||

Intro 2

G|-------------------------------------------------------------------||
D|-------------------------------------------------------------------||
A|-5/10--10/5--3-3--5/10--10/5--3-3--5/10--10/5-3-3--5/10--10/5--3-3-||
E|-------------------------------------------------------------------||

G||-----------------------||
D||-----------------------||
A||-----0---0---0--2-2----|| 
E||--1---1---1------------||


G|-------------------------------------------------------------------||
D|-------------------------------------------------------------------||
A|-5/10--10/5--3-3--5/10--10/5--3-3--5/10--10/5-3-3--5/10--10/5--3-3-||
E|-------------------------------------------------------------------||

G||-----------------------||
D||-----------------------||
A||-----0---0---0--2-2----|| 
E||--1---1---1------------||

Verse

G|-------------------------------------------------------------------||
D|-------------------------------------------------------------------||
A|-1/3--3/1--1/3--3/1-1/3--3/1-1/3--3/1-1/3--3/1---1-1---------------||
E|-----------------------------------------------------1-------------||
Repeat until chorus

Chorus
[ Tab from: http://www.guitartabs.cc/tabs/n/newsboys/take_me_to_your_leader_btab_ver_3.html ]
G|-------------------------------------------------------------------||
D|-------------------------------------------------------------------||
A|-5/10-10/5-55---5/10-10/5-55--5/10-10/5-55-------------------------||
E|-------------------------------------------------------------------||

Verse

G|-------------------------------------------------------------------||
D|-------------------------------------------------------------------||
A|-1/3--3/1--1/3--3/1-1/3--3/1-1/3--3/1-1/3--3/1---1-1---------------||
E|-----------------------------------------------------1-------------||
Repeat until chorus

G|-------------------------------------------------------------------||
D|-------------------------------------------------------------------||
A|-5/10-10/5-55---5/10-10/5-55--5/10-10/5-55-------------------------||
E|-------------------------------------------------------------------||

G|-------------------------------------------------------------------||
D|-------------------------------------------------------------------||
A|-5/10-10/5-55---5/10-10/5-55--5/10-10/5-55-------------------------||
E|-------------------------------------------------------------------||

Drum and keyboard solo
then:

G|-------------------------------------------------------------------||
D|-------------------------------------------------------------------||
A|-5/10-10/5-55---5/10-10/5-55--5/10-10/5-55-------------------------||
E|-------------------------------------------------------------------||

outro:

G|-------------------------------------------------------------------||
D|-------------------------------------------------------------------||
A|-5/10-10/5-55---5/10-10/5-55--5/10-10/5-55-------------------------||
E|-------------------------------------------------------------------||

G|-------------------------------------------------------------------||
D|-------------------------------------------------------------------||
A|-5/10-10/5-55---5/10-10/5-55--5/10-10/5-55-------------------------||
E|-------------------------------------------------------------------||

G|-------------------------------------------------------------------||
D|-------------------------------------------------------------------||
A|-5/10-10/5-55---5/10-10/5-55--5/10-10/5-55-------------------------||
E|-------------------------------------------------------------------||
repeat and fade

Thanks
RighteousDuncan
Comments