Newsboys - Going Public Chords & Tabs

 

Going Public Chords & Tabs

Newsboys Chords & Tabs

Version: 1 Type: Bass Tab 0 ratings
1 star 2 stars 3 stars 4 stars 5 stars
comments

Going Public Bass Tab

Going Public
Newsboys
from Going Public
tabbed by Jared Gardner   hansolo@integrityonline10.com

G|--------------------------------------------------
D|--------------------------------------------------  intro & verse 
A|--5-5-0-5-5--0-5-5--0-5-5--1-1--1---1--3-3--3-0-3-
E|----------------------------------3---------------
[ Tab from: http://www.guitartabs.cc/tabs/n/newsboys/going_public_btab.html ]
G|-----------------------------------------------------------------------------
D|-----------------------------------------------------------------------------  chorus      
A|--5-5--5-5-5--5-5-5--5-5-5--3-3--3-3-3--0-0--0-0-0--5-5--5-5-5--5-5-5--5-5-5-
E|-----------------------------------------------------------------------------

G|--------------------------------------------------------
D|-------------------------------------------------------- play this during the
A|-----3--0---------3-----0------3--0---------3-----0-----  guitar solo
E|--0--------3---0-----3------0--------3---0-----3--------

G|---------------------------------
D|---------------------------------
A|--5-5-5-5-3-2-0---5-5-5-5-3-2-0--
E|---------------------------------

Comments