Newsboys - Breakfast Chords & Tabs

 

Breakfast Chords & Tabs

Newsboys Chords & Tabs

Version: 1 Type: Tab 1 rating
1 star 2 stars 3 stars 4 stars 5 stars
comments

Breakfast Tab

Song: Breakfast  Artist: The Newsboys  Tuning: Standard     
 
Intro x4
                   
e----------------
B----------------
G---4--4--4--9--9
D--2--2--2--7--7- 
A----------------
E---------------- 

Verse Part 1 x4

e--------------------------------
B--------------------------------
G-------------------4--4---------
D---6--6--6--6--6--2--2---4--4--4 
A--4--4--4--4--4---------2--2--2-
E--------------------------------

Verse Part 2 x4
[ Tab from: http://www.guitartabs.cc/tabs/n/newsboys/breakfast_tab.html ]
e--------------------------------
B--------------------------------
G---6--6--6--6--6---------9--9--9 
D--4--4--4--4--4---9--9--7--7--7-
A-----------------7--7-----------
E--------------------------------

Chorus x2

e----------------------------------------------------------------
B----------------------------------------------------------------
G--2222----------------------------2222------------4444--4444--44
D--OOOO--2222--22------------------OOOO--2222--22--2222--2222--22
A--------OOOO--OO--2222--4444--44--------OOOO--OO----------------
E------------------OOOO--2222--22--------------------------------

Repeat from part 1

Bridge x8

e----------------
B----------------
G---4--4--4--9--9
D--2--2--2--7--7-
A----------------
E----------------

Chorus x7

End
Comments