New York Dolls - Stranded In The Jungle Chords & Tabs

 

Stranded In The Jungle Chords & Tabs

New York Dolls Chords & Tabs

Version: 1 Type: Bass Tab 0 ratings
1 star 2 stars 3 stars 4 stars 5 stars
comments

Stranded In The Jungle Bass Tab

Theres the intro with just the drums, then when the bass comes in its like this:

G------------|
D-----------*|
A-----------*|
E--12--10-7--|

the little *'s mean repeat it. you'll figure it out
[ Tab from: http://www.guitartabs.cc/tabs/n/new_york_dolls/stranded_in_the_jungle_btab.html ]
then when the song switches to the part in the "states" it goes like this:
 
      *MAIN         5
G-------------------||------------11--|------------13-|                 |
D-------------11---*||------11--14----|-----13--16----|                 |
A------11--14----14*||---12-----------|--14-----------|*play MAIN twice |
E---12--------------||----------------|---------------|                 |  

---------11----------|------------13---------|
---11--14------------|-----13--16------------|
12------------14--14-|--14-------------14--14|*MAIN again twice
---------------------|-----------------------|

Yeah, thats basicly it, not too bad for a first time tab, eh?  see you cats later

Musical_Landeus
Comments