New Order - Elegia Chords & Tabs

 

Elegia Chords & Tabs

New Order Chords & Tabs

Version: 1 Type: Tab 0 ratings
1 star 2 stars 3 stars 4 stars 5 stars
comments

Elegia Tab

----------------------------------------------------------------------
			     Elegia - New Order.
----------------------------------------------------------------------
Tabbed by: Geoff Brin
Email: salamander37@hotmail.com
Tuning: Standard

e---------------------------------------------------------|
b---------------------------------------------------------|
g---------------------------------------------------------|
d-7~~---7--9--9-5~~---7--9--92~~---7---14~~-------------|
a---------------------------------------------------------|
E---------------------------------------------------------|

e----------------------------------------------------------|
b----------------------------------------------------------|
g---------------------------------9-9-9-9-9-12-12-12-12-12-|
d-7~~---7--9--9-5~~---7--9--10-2~~-----------------------|
a----------------------------------------------------------|
E----------------------------------------------------------|

e---------------------------------------------------------|
b---------------------------------------------------------|
g-14-14-14-14-14--16--14--12------------------------------|
d---------------------------------------------------------|
a---------------------------------------------------------|
E---------------------------------------------------------| x2


e---------------------------------------------------------|
b---------------------------------------------------------|
g----16--14--12------------------------------9~~----------|
d-7~~------------7~~--7--9--9-5~~-7--9--10---------------|
a---------------------------------------------------------|
E---------------------------------------------------------|

e---------------------------------------------------------|
b---------------------------------------------------------|
g--7--9-9-9-9-9-12-12-12-12-12-14-14-14-14-14--16--1412--|
d--------------------------------------------------------|
a---------------------------------------------------------|
E---------------------------------------------------------|

e---------------------------------------------------------|
b---------------------------------------------------------|
g---------------------------------9~~---------------------|
d--7~~--7--9--9-5~~-5--7--9--10-------------------------|
a---------------------------------------------------------|
E---------------------------------------------------------|

e----------------------------------------------------------|
b----------------------------------------------------------|
g-9-7--9-9-9-9-9-12-12-12-12-12-14-14-14-14-14--16--1412-|
d---------------------------------------------------------|
a----------------------------------------------------------|
E----------------------------------------------------------|
[ Tab from: http://www.guitartabs.cc/tabs/n/new_order/elegia_tab.html ]
e----------------------------------------------------------|
b----------------------------------------------------------|
g----------------------------------9~~---------------------|
d--7~~-7--7--9--7-5~~-5--7--9--10-------------------------|
a----------------------------------------------------------|
E----------------------------------------------------------|
e----------------------------------------------------------|
b----------------------------------------------------------|
g-9-7--9-9-9-9-9-12-12-12-12-12-14-14-14-14-14--16--1412-|
d---------------------------------------------------------|
a----------------------------------------------------------|
E----------------------------------------------------------|


e---------------------------------------------------------|
b---------------------------------------------------------|
g----------------------------------9~~--------------------|
d--7~~-7--7--9--7-5~~-7--7--9--10------------------------|
a---------------------------------------------------------|
E---------------------------------------------------------|

e-----------------------------------------------------------|
b-----------------------------------------------------------|
g-9-7--9-9-9-9-9-12-12-12-12-12-14-14-14-14-14--16--1412--|
d----------------------------------------------------------|
a-----------------------------------------------------------|
E-----------------------------------------------------------| x2


e---------------------------------------------------------|
b---------------------------------------------------------|
g----------------------------------9~~--------------------|
d--7~~--7--9--9-5~~-7--7--9--10--------------------------|
a---------------------------------------------------------|
E---------------------------------------------------------|

e----------------------------------------------------------|
b----------------------------------------------------------|
g-9-7--9-9-9-9-9-12-12-12-12-12-14-14-14-14-14--16--1412-|
d---------------------------------------------------------|
a----------------------------------------------------------|
E----------------------------------------------------------|

e---------------------------------------------------------|
b---------------------------------------------------------|
g---------------------------------------------------------|
d--7~~~~~~~~~~~~------------------------------------------|
a---------------------------------------------------------|
E---------------------------------------------------------|

Second Guitar:
e----------------------------------------------------------|
b----------------------------------------------------------|
g----------------------------------------------------------|
d--7~~--7--7--9--7--9--14--127~~7--7--9--7--9--14--127~~-|
E----------------------------------------------------------|

e----------------------------------------------------------|
b----------------------------------------------------------|
g----------------------------------------------------------|
d--779--7--12~~------------------------------------------|
a----------------------------------------------------------|
E----------------------------------------------------------|
e----------------------------------------------------------|
b----------------------------------------------------------|
g----------------------------------------------------------|
d--7~~--7--7--9--7--9--14--12-10~~10--10--12--10--12-14~-|
E----------------------------------------------------------|

e---------------------------------------------------------|
b---------------------------------------------------------|
g---------------------------------------------------------|
d--12--10--1012p10--12--10--10--12--14--12--10--7--------|
a---------------------------------------------------------|
E---------------------------------------------------------|

Not sure about that last part so feel free to let me know
if you can figure out what it really is. My first tab so
let me know how it is.
Comments