New Order - Blue Monday Chords & Tabs

 

Blue Monday Chords & Tabs

New Order Chords & Tabs

Version: 1 Type: Tab 0 ratings
1 star 2 stars 3 stars 4 stars 5 stars
comments

Blue Monday Tab

New Order - Blue Monday
Tabbed By Sam Ellis
Babyshambles19@hotmail.co.uk

Pretty cool song, the band I'm in fancied covering it n I didn't like n e of the tabs so 
had ago myself.

Into and verse riff
E|------------------------------------------------------------|
B|------------------------------------------------------------|
G|------------------------------------------------------------|
D|------------------------------------------------------------|
A|--10-10-10-12-5-5-5-5-7-7-7-7-7-7-7-7-----------------------|
E|------------------------------------------------------------|
This sounds ok bar chorded as well,or like scar style bar chorded to.
[ Tab from: http://www.guitartabs.cc/tabs/n/new_order/blue_monday_tab.html ]
Synth riff for guitar
E|---6---------------------------6----------------------------|
B|------7--8------------------------7--5----------------------|
G|------------------------------------------------------------|
D|------------------------------------------------------------|
A|------------------------------------------------------------|
E|------------------------------------------------------------|

chorus
E|------------------------------------------------------------|
B|------------------------------------------------------------|
G|--2222-----------------4444---------------------------------|
D|--2222-2222-44444444---4444-2222-44444444-------------------|
A|--0000-2222-44444444---2222-2222-44444444-------------------|
E|-------0000-22222222--------0000-22222222-------------------|

Synth solo riff for guitar, sorta works I jus play round in that key
E------------------------------------------------------------|
B------------------------------------------------------------|
G------------------------------------------------------------|
D---------------8-------8------------------------------------|
A----6-4---4-6----9-4-6---9-6-6------------------------------|
E--------6---------------------------------------------------|
Comments