New Order - Bizzare Love Triangle Chords & Tabs

 

Bizzare Love Triangle Chords & Tabs

New Order Chords & Tabs

Version: 1 Type: Tab 0 ratings
1 star 2 stars 3 stars 4 stars 5 stars
comments

Bizzare Love Triangle Tab

   
True Faith by New Order
Tabbed by Steve Hwang
Questions and comments go to ghost_m80@hotmail.com

Standard Tuning
Capo 3rd Fret

Chords:
C x32010  D xx0232  Bm 224432  G 320003


[Intro]

e|----------------------------------------|
B|----------------------------------------|
G|-0-0---0-0---0-2-----0-0---0-0---0-2----|
D|-----2-----2-------2-----2-----2--------|
A|----------------------------------------|
E|----------------------------------------|

e|----------------------------------------|
B|----------------------------------------|
G|---0-0---4-4-2-2-2-----0-0---0-0---0-2--|
D|-2-----2-------------2-----2-----2------|
A|----------------------------------------|
E|----------------------------------------|


[Verse]
C              D
  Every time I think of you
       Bm                        C
I feel shot right through with a bolt of blue
                                   D
It's no problem of mine but it's a problem I find
Bm                   C
Living a life that I can't leave behind
                    D
There's no sense in telling me
    Bm                     C
The wisdom of a fool won't set you free
[ Tab from: http://www.guitartabs.cc/tabs/n/new_order/bizzare_love_triangle_tab.html ]
But that's the way that it goes
              D
And it's what nobody knows
      Bm           C
While every day my confusion grows

[Chorus]
C             D
Every time I see you falling
  Bm               C
I get down on my knees and pray
                     D
I'm waiting for that final moment
      Bm                   C
You'll  say the words that I can't say

[Repeat Intro]

[Verse]
C               D
I feel fine and I feel good
Bm                 C
I'm feeling like I never should
                                      D
Whenever I get this way, I just don't know what to say
             Bm                   C
Why can't we be ourselves like we were yesterday
                  D
I'm not sure what this could mean
Bm                   C
I don't think you're what you seem

I do admit to myself
          D
That if I hurt someone else
          Bm                        C
Then I'll never see just what we're meant to be

[Repeat Chorus]

[Solo]
e|----------------------------------------------------|
B|----------------------------------------------------|
G|----------------------------------------------------|
D|----------------------------------------------------|
A|----------------------------------------------------|
E|-10--8-7-8--5--5-7-8-10--10slide3-------------------| X 2

[Repeat Chorus 2X]

End on G
Comments