New Order - 60 Miles An Hour Chords & Tabs

 

60 Miles An Hour Chords & Tabs

New Order Chords & Tabs

Version: 1 Type: Tab 0 ratings
1 star 2 stars 3 stars 4 stars 5 stars
comments

60 Miles An Hour Tab

#----------------------------------PLEASE NOTE---------------------------------#
#This file is the author's own work and represents their interpretation of the #
#song. You may only use this file for private study, scholarship, or research. #
#------------------------------------------------------------------------------#

60 Miles an Hour

riff 1
-----------------------------------------------------
-----------------------------------------------------
--------------------------------------------------9--
----------7s9-7----7------------------7s9-7----7-9---
-7-7-7s10-------10---7-7----7-10-7-10-------10-------
-----------------------------------------------------

------------------------------------------------
------------------------------------------------
-9-7---------7-7--------------------------------
-----10-9-10-----10-9-------7-7-----------------
----------------------10--------10-10-7-7-s7-7s-
------------------------------------------------

riff 2
----------------------------------------------------
----------------------------------------------------
----------------------------------------------------
-------------7------------------7-7-----------------
-10-10-10-10---10-9-10-9-7----7-----10-10-7-7-s7-7s-
----------------------------------------------------

I'll be there for you...(2)
[ Tab from: http://www.guitartabs.cc/tabs/n/new_order/60_miles_an_hour_tab.html ]
riff 3
--------------------------------------------
--------------------------------------------
------------------------------------------9-
-7s9-7----7------------------7s9-7----7-9---
-------10---7-7----7-10-7-10-------10-------
--------------------------------------------

------------------------------------------------
------------------------------------------------
-9-7---------7-7--------------------------------
-----10-9-10-----10-9-------7-7-----------------
----------------------10--------10-10-7-7-s7-7s-
------------------------------------------------

interlude              solo 
--------------------- ----------------------------
------12----12--8--6- ----------------------------
-9------------------- -11b12-11-9-11-9--9-11-9-11-
--------------------- ----------------------------
--------------------- ----------------------------
--------------------- ----------------------------

riff 4
-----------------------------------------------------
-----------------------------------------------------
-----------------------------------------------------
-------------7-------------------------7---------7s9-
-10-10-10-10---10-9-10-9-7----10-10-10---10-9-10-----
-----------------------------------------------------

-------------------------------------
-------------------------------------
-7-7-7-7-----------------------------
---------10-9-10-9-------7-7---------
-------------------10--------10-10-7-
-------------------------------------
Comments