New Holland Drive - December Chords & Tabs

 

December Chords & Tabs

New Holland Drive Chords & Tabs

Version: 2 Type: Tab 0 ratings
1 star 2 stars 3 stars 4 stars 5 stars
comments

December Tab

   
NewHolland Drive - December

Intro

gtr 1
e:----------------------------------|
B:-3-3-3-3--------------------------|
G:-2-2-2-2--------------------------|
D:-0-0-0-0-4-4-4-4-7-7-7-7-2-2-2-44-|
A:-0-0-0-0-4-4-4-4-7-7-7-7-2-2-2-44-|
D:-0-0-0-0-4-4-4-4-7-7-7-7-2-2-2-44-|

gtr2
e:-----------------------------------------------|
B:-----------------------------------------------|
G:-11-11-11-11-14-14-14-14-9-9-9-9-13-13-13-1414-|
D:-----------------------------------------------|
A:-9--9--9--9--12-12-12-12-7-7-7-7-11-11-11-1212-|
D:-----------------------------------------------|

Verse

gtr 1 & 2
e:----------------------------------|
B:-3-3-3-3--------------------------|
G:-2-2-2-2--------------------------|
D:-0-0-0-0-4-4-4-4-7-7-7-7-2-2-2-44-|
A:-0-0-0-0-4-4-4-4-7-7-7-7-2-2-2-44-|
D:-0-0-0-0-4-4-4-4-7-7-7-7-2-2-2-44-|

Chorus

e:---------------------------------|
B:-------------------------3-3-3-3-|
G:-4-4-4-4-----------------2-2-2-2-|
D:-4-4-4-4-4-4-4-4-5-5-5-5-0-0-0-0-| x3
A:-2-2-2-2-4-4-4-4-5-5-5-5-0-0-0-0-|
D:---------4-4-4-4-5-5-5-5-0-0-0-0-|

e:---------------------------------|
B:---------------------------------|
G:-4-4-4-4-------------------------|
D:-4-4-4-4-4-4-4-4-5---------------|
A:-2-2-2-2-4-4-4-4-5---------------|
D:---------4-4-4-4-5---------------|

Bridge
[ Tab from: http://www.guitartabs.cc/tabs/n/new_holland_drive/december_tab_ver_2.html ]
e:---------------------------------|
B:-------------------------3-3-3-3-|
G:-------------------------2-2-2-2-|
D:-7-7-7-7-2-2-2-2-5-5-5-5-0-0-0-0-|
A:-7-7-7-7-2-2-2-2-5-5-5-5-0-0-0-0-|
D:-7-7-7-7-2-2-2-2-5-5-5-5-0-0-0-0-|


Lyrics:

These are my reasons for getting over you
A stupid mistake and a pointless thought or two
Many things have changes since december
When i thought as long as you remember

Ill be gone come winter, when the snow falls down again
And your eyes remind me of daylight, pictures i'd never send away
Casue i thought you might see my and then turn your back again
this goodbye could last the rest of our lives.

These are my reasons for trying something new
You were the hardest person to say goodbye to
A tear fell down as you walked away
A tear fell down choaked what i had to say

Ill be gone come winter, when the snow falls down again
And your eyes remind me of daylight, pictures i'd never send away
Casue i thought you might see my and then turn your back again
this goodbye could last the rest of our lives.

Star light star bright first star i see tonight
Wish i may and wish i might hold your star i see tonight
For the first time i have felt alive

Ill be gone come winter, when the snow falls down again
And your eyes remind me of daylight, pictures i'd never send away
Casue i thought you might see my and then turn your back again
this goodbye could last the rest of our lives.


Order:
Intro
Verse
Chorus
Intro
Verse
Chorus
Bridge
Solo
Chorus
Intro
Comments