New Found Glory - Your Biggest Mistake Chords & Tabs

 

Your Biggest Mistake Chords & Tabs

New Found Glory Chords & Tabs

Version: 1 Type: Bass Tab

Your Biggest Mistake Bass Tab

                             NEW FOUND GLORY
                          YOUR BIGGEST MISTAKE
-----------------------------------------------------------------------------
Bizzypunk

                               BASS TAB
-----------------------------------------------------------------------------

Intro 0:06
G|---------------------------------------------------------------------||
D|---------------------------------------------------------------------||
A|-----------4--------------4--------------4--------------4------------||
E|-00--04444---4444---04444---4444---04444---4444---04444---4444--00---||


Verse
G|----------------------------------------------------------------||
D|----------------------------------------------------------------||
A|-----------4-44444444--5-55555555--00000000---------------------|| x2
E|-0-0000000------------------------------------------------------||


Pre-Chorus [your life is a time bomb...]
G|----------------------------------------------------------------||
D|----------------------------------------------------------------||
A|---------44444444-55555555-00000000-----------------------------|| x2
E|-00000000-------------------------------------------------------||

[ Tab from: http://www.guitartabs.cc/tabs/n/new_found_glory/your_biggest_mistake_btab.html ]
Chorus
G|-------------------------------------------------------------------||
D|-------------------------------------------------------------------||
A|-------4--------------4--------------4--------------02222----------||x2
E|-04444---44444--04444---44444--04444---44444--24444----------------||


Post-Chorus
G|--------------------------------||
D|--------------------------------||
A|--------------------------------||
E|-44444444-----------------------||

Verse x2
Pre-Chorus x2
Chorus x2

Bridge 1:44
G|----------------------------------------||
D|----------------------------------------||
A|--------444-----------------------------|| x5
E|-444000----000--------------------------||

[those are fifteens]
G|----------------------------------------||
D|----------------------------------------||
A|--------44444444/-1515151515151515------||
E|-444000---------------------------------||

G|------------------------------------------------||
D|------------------------------------------------||
A|-------4-------------4--------------------------||
E|-04444---4444--04444---4444---------------------||

Chorus x3


oK WeLl It WaS hArD !
hOpE yOu AlL lIkE IT !!
Hey hahaha a chick just tab !
makes a change from all the guy§ ...