New Found Glory - Whiskey Rose Chords & Tabs

 

Whiskey Rose Chords & Tabs

New Found Glory Chords & Tabs

Version: 1 Type: Tab 0 ratings
1 star 2 stars 3 stars 4 stars 5 stars
comments

Whiskey Rose Tab

   
Gtr I (E A D G B E) - 'Chad'
Gtr II (E A D G B E) - 'Steve'


 Intro
  Moderately Q=145
  N.C.
 4/4
  Gtr I
  W          E E E  E +E  E E E   +E  E E E  E  E E E
|----------|--------------------|---------------------|
|----------|--------------------|---------------------|
|----------|---0----------0-----|-----0---2s=4--2-0-2-|
|----------|-2----------------2-|-(2)-----------------|
|----------|-------/5-(5)-------|---------------------|
|----------|--------------------|---------------------|
|
| Gtr II
| W          E E E  E +E  E E E   +E  E E E +Q    Q
|----------|--------------------|---------------------|
|----------|--------------------|---------------------|
|----------|--------------------|---------------------|
|----------|-2-2----0-(0)-0-----|---------0-(0)---0---|
|----------|------------------3-|-(3)-3---------------|
|----------|--------------------|---------------------|


  E E E  E +E  E E E   +E  E E E  E  E Q
|--------------------|----------------------|
|--------------------|----------------------|
|---0----------0-----|-----0---2s=4--2-0----|
|-2----------------2-|-(2)------------------|
|-------/5-(5)-------|----------------------|
|--------------------|----------------------|
|
| E E E  E +E  E E E   +E  E E E +Q    Q
|--------------------|----------------------|
|--------------------|----------------------|
|--------------------|----------------------|
|-2-2----0-(0)-0-----|---------0-(0)---0----|
|------------------3-|-(3)-3----------------|
|--------------------|----------------------|


  E E E  E +E  E E E   +E  E E E  E  E E E
|--------------------|---------------------|
|--------------------|---------------------|
|---0----------0-----|-----0---2s=4--2-0-2-|
|-2----------------2-|-(2)-----------------|
|-------/5-(5)-------|---------------------|
|--------------------|---------------------|
|
| E E E  E +E  E E E   +E  E E E +Q    Q
|--------------------|---------------------|
|--------------------|---------------------|
|--------------------|---------------------|
|-2-2----0-(0)-0-----|---------0-(0)---0---|
|------------------3-|-(3)-3---------------|
|--------------------|---------------------|


  E E E  E +E  E E E   +E   E   E   E   E   E   E   E
|--------------------|---------------------------------|
|--------------------|-----(0)-------------(0)---------|
|---0----------0-----|---------(0)-----(0)-----(0)-----|
|-2----------------2-|-(2)---------(2)-------------(2)-|
|-------/5-(5)-------|---------------------------------|
|--------------------|---------------------------------|
|
| E E E  E +E  E E E   +W
|--------------------|---------------------------------|
|--------------------|---------------------------------|
|--------------------|---------------------------------|
|-2-2----0-(0)-0-----|---------------------------------|
|------------------3-|-(3)-----------------------------|
|--------------------|---------------------------------|


 Verse
                       $
  Gtr I
  E E E  E +E   E  E E   +E  E E E E E E E
|----------------------|-------------------|
|----------------------|-------------------|
|---0-----------0------|-----0---2s4-2-0-2-|
|-2------------(0)---2-|-(2)---------------|
|-------/5-(5)---------|-------------------|
|----------------------|-------------------|


  E E E  E +E  E E E   +E  E E E E E Q
|--------------------|------------------|
|--------------------|------------------|
|---0----------0-----|-----0---2s4-2-0--|
|-2----------------2-|-(2)--------------|
|-------/5-(5)-------|------------------|
|--------------------|------------------|


  Gtr I
  E E E  E +E   E  E E   +E  E E E E E E E
|----------------------|-------------------|
|----------------------|-------------------|
|---0-----------0------|-----0---2s4-2-0-2-|
|-2------------(0)---2-|-(2)---------------|
|-------/5-(5)---------|-------------------|
|----------------------|-------------------|
|
| Gtr II
| W                       W
|----------------------|-------------------|
|----------------------|-------------------|
|----------------------|-------------------|
|----------------------|-------------------|
|----------------------|-------------------|
|----------------------|-------------------|


                   C
  E E E  E +E  E E E   +E   E   E   E   E   E   E   E
|--------------------|---------------------------------|
|--------------------|-----(0)-------------(0)---------|
|---0----------0-----|---------(0)-----(0)-----(0)-----|
|-2----------------2-|-(2)---------(2)-------------(2)-|
|-------/5-(5)-------|---------------------------------|
|--------------------|---------------------------------|
|
| H         Q.     E   +W
|--------------------|---------------------------------|
|--------------------|---------------------------------|
|------------------0-|-(0)-----------------------------|
|------------------2-|-(2)-----------------------------|
|------------------3-|-(3)-----------------------------|
|--------------------|---------------------------------|


  N.C.
  E E E  E +E  E E E   +E  E E E  E  E E E
|--------------------|---------------------|
|--------------------|---------------------|
|---0----------0-----|-----0---2s=4--2-0-2-|
|-2----------------2-|-(2)-----------------|
|-------/5-(5)-------|---------------------|
|--------------------|---------------------|
|
| E E E  E +E  E E E   +E  E E E +Q    Q
|--------------------|---------------------|
|--------------------|---------------------|
|--------------------|---------------------|
|-2-2----0-(0)-0-----|---------0-(0)---0---|
|------------------3-|-(3)-3---------------|
|--------------------|---------------------|


  E E E  E +E  E E E   +E  E E E  E  E Q
|--------------------|--------------------|
|--------------------|--------------------|
|---0----------0-----|-----0---2s=4--2-0--|
|-2----------------2-|-(2)----------------|
|-------/5-(5)-------|--------------------|
|--------------------|--------------------|
|
| E E E  E +E  E E E   +E  E E E +Q    Q
|--------------------|--------------------|
|--------------------|--------------------|
|--------------------|--------------------|
|-2-2----0-(0)-0-----|---------0-(0)---0--|
|------------------3-|-(3)-3--------------|
|--------------------|--------------------|


  E E E  E +E  E E E   +E  E E E  E  E E E
|--------------------|---------------------|
|--------------------|---------------------|
|---0----------0-----|-----0---2s=4--2-0-2-|
|-2----------------2-|-(2)-----------------|
|-------/5-(5)-------|---------------------|
|--------------------|---------------------|
|
| E E E  E +E  E E E   +E  E E E +Q    Q
|--------------------|---------------------|
|--------------------|---------------------|
|--------------------|---------------------|
|-2-2----0-(0)-0-----|---------0-(0)---0---|
|------------------3-|-(3)-3---------------|
|--------------------|---------------------|


                       Pre-Chorus
                   Em7/C
  E E E  E +E  E E E    +E  E Q  E E Q
|--------------------||-----------------|
|--------------------||-----------------|
|---0----------0---0-||-(0)-0-0--0-0-0--|
|-2--------------2-2-||-(2)-2-2--2-2-2--|
|-------/5-(5)-----3-||-(3)-3-3--3-3-3--|
|--------------------||-----------------|
|
| E E E  E +E  E E E    +E  E Q  E E Q
|------------------3-||-------3------3--|
|------------------3-||-------3------3--|
|------------------0-||-(0)-0-0--0-0-0--|
|-2-2----0-(0)-0---2-||-(2)-2-2--2-2-2--|
|----------------3-3-||-(3)-3-3--3-3-3--|
|--------------------||-----------------|


                                           To Coda
               A5                                 Em7/C
  E E Q  E E E E   +E  E Q  E E Q    E E Q  E E E E   +E  E Q  E E Q
|----------------|-----------------|----------------|-----------------|
|----------------|-----------------|----------------|-----------------|
|-0-0-0--0-0-0-2-|-(2)-2-2--2-2-2--|-2-2-2--2-2-2-0-|-(0)-0-0--0-0-0--|
|-2-2-2--2-2-2-2-|-(2)-2-2--2-2-2--|-2-2-2--2-2-2-2-|-(2)-2-2--2-2-2--|
|-3-3-3--3-3-3-0-|-(0)-0-0--0-0-0--|-0-0-0--0-0-0-3-|-(3)-3-3--3-3-3--|
|----------------|-----------------|----------------|-----------------|
|
| E E Q  E E E E   +E  E Q  E E Q    E E Q  E E E E   +E  E Q  E E Q
|-----3--------0-|-------0------0--|-----0--------3-|-------3------3--|
|-----3--------x-|-------x------x--|-----x--------3-|-------3------3--|
|-0-0-0--0-0-0-2-|-(2)-2-2--2-2-2--|-2-2-2--2-2-2-0-|-(0)-0-0--0-0-0--|
|-2-2-2--2-2-2-2-|-(2)-2-2--2-2-2--|-2-2-2--2-2-2-2-|-(2)-2-2--2-2-2--|
|-3-3-3--3-3-3-0-|-(0)-0-0--0-0-0--|-0-0-0--0-0-0-3-|-(3)-3-3--3-3-3--|
|----------------|-----------------|----------------|-----------------|


                                                              Chorus
               D5                                              G5          C5
  E E Q  E E E E   +E  E E E +E  E E E   +E  E E E E E E E     E E E E E E Q
|----------------|---------------------|-------------------||-----------------|
|----------------|---------------------|-------------------||o----------------|
|-0-0-0--0-0-0-7-|-(7)-7-x-7-(7)-7-x-7-|-(7)-7-7-7-7-7-7-7-||--------------5--|
|-2-2-2--2-2-2-7-|-(7)-7-x-7-(7)-7-x-7-|-(7)-7-7-7-7-7-7-7-||--5-5-5-5-5---5--|
|-3-3-3--3-3-3-5-|-(5)-5-x-5-(5)-5-x-5-|-(5)-5-5-5-5-5-5-5-||o-5-5-5-5-5---3--|
|----------------|---------------------|-------------------||--3-3-3-3-3------|
|
| E E Q  E E E E   +E  E E E +E  E E E   +E  E E E E E E E     E E E E E E Q
|-----3----------|---------------------|-------------------||-----------------|
|-----3----------|---------------------|-------------------||o----------------|
|-0-0-0--0-0-0-7-|-(7)-7-x-7-(7)-7-x-7-|-(7)-7-7-7-7-7-7-7-||--------------5--|
|-2-2-2--2-2-2-7-|-(7)-7-x-7-(7)-7-x-7-|-(7)-7-7-7-7-7-7-7-||--5-5-5-5-5---5--|
|-3-3-3--3-3-3-5-|-(5)-5-x-5-(5)-5-x-5-|-(5)-5-5-5-5-5-5-5-||o-5-5-5-5-5---3--|
|----------------|---------------------|-------------------||--3-3-3-3-3------|


                     G5          C5                      A5          C5
  +E  E Q  E E E E   E E E E E E Q    +E  E Q  E E E E   E E E E E E Q
|------------------|----------------|------------------|----------------|
|------------------|----------------|------------------|----------------|
|-(5)-5-5--5-5-5---|-------------5--|-(5)-5-5--5-5-5---|-2-2-2-2-2---5--|
|-(5)-5-5--5-5-5-0-|-5-5-5-5-5---5--|-(5)-5-5--5-5-5-0-|-2-2-2-2-2---5--|
|-(3)-3-3--3-3-3-0-|-5-5-5-5-5---3--|-(3)-3-3--3-3-3-0-|-0-0-0-0-0---3--|
|------------------|-3-3-3-3-3------|------------------|----------------|
|
| +E  E Q  E E E E   E E E E E E Q    +E  E Q  E E E E   E E E E E E Q
|------------------|----------------|------------------|----------------|
|------------------|----------------|------------------|----------------|
|-(5)-5-5--5-5-5-5-|-------------5--|-(5)-5-5--5-5-5-5-|-2-2-2-2-2---5--|
|-(5)-5-5--5-5-5-5-|-5-5-5-5-5---5--|-(5)-5-5--5-5-5-5-|-2-2-2-2-2---5--|
|-(3)-3-3--3-3-3-3-|-5-5-5-5-5---3--|-(3)-3-3--3-3-3-3-|-0-0-0-0-0---3--|
|------------------|-3-3-3-3-3------|------------------|----------------|


                     A5      B5        C5
  +E  E Q  E E E E   E E  E  E +E  E E E
|------------------|---------------------|
|------------------|---------------------|
|-(5)-5-5--5-5-5---|------5----------5---|
|-(5)-5-5--5-5-5-0-|---2-----------5-----|
|-(3)-3-3--3-3-3-0-|-0-------2-(2)-----3-|
|------------------|---------------------|
|
| +E  E Q  E E E E   Q   +E  H         E
|------------------|---------------------|
|------------------|---------------------|
|-(5)-5-5--5-5-5-5-|---------------------|
|-(5)-5-5--5-5-5-5-|-2---(2)-4---------5-|
|-(3)-3-3--3-3-3-3-|-0---(0)-2---------3-|
|------------------|---------------------|


                               D.S. al Coda
  +E  E E E E E E E     E E E  E +E   E  E E
|--------------------||----------------------|
|-------------------o||----------------------|
|-------5-------5----||---0-----------0------|
|-----5---5---5---5--||-2------------(0)---2-|
|-(3)-------3-------o||-------/5-(5)---------|
|--------------------||----------------------|
|
| +W                    W
|--------------------||----------------------|
|-------------------o||----------------------|
|--------------------||----------------------|
|-(5)----------------||----------------------|
|-(3)---------------o||----------------------|
|--------------------||----------------------|


  &
  C     Em7/C                    A5                                 Em7/C
   E  E Q  E E Q    E E Q  E E E E   +E  E Q  E E Q    E E Q  E E E E
|-----------------|----------------|-----------------|----------------|
|-----------------|----------------|-----------------|----------------|
|-(0)-0-0--0-0-0--|-0-0-0--0-0-0-2-|-(2)-2-2--2-2-2--|-2-2-2--2-2-2-0-|
|-(2)-2-2--2-2-2--|-2-2-2--2-2-2-2-|-(2)-2-2--2-2-2--|-2-2-2--2-2-2-2-|
|-(3)-3-3--3-3-3--|-3-3-3--3-3-3-0-|-(0)-0-0--0-0-0--|-0-0-0--0-0-0-3-|
|-----------------|----------------|-----------------|----------------|
|
|  E  E Q  E E Q    E E Q  E E E E   +E  E Q  E E Q    E E Q  E E E E
|-------3------3--|-----3--------0-|-------0------0--|-----0--------3-|
|-------3------3--|-----3--------x-|-------x------x--|-----x--------3-|
|-(0)-0-0--0-0-0--|-0-0-0--0-0-0-2-|-(2)-2-2--2-2-2--|-2-2-2--2-2-2-0-|
|-(2)-2-2--2-2-2--|-2-2-2--2-2-2-2-|-(2)-2-2--2-2-2--|-2-2-2--2-2-2-2-|
|-(3)-3-3--3-3-3--|-3-3-3--3-3-3-0-|-(0)-0-0--0-0-0--|-0-0-0--0-0-0-3-|
|-----------------|----------------|-----------------|----------------|

[ Tab from: http://www.guitartabs.cc/tabs/n/new_found_glory/whiskey_rose_tab.html ]
                                 A5                                 Em7/C
  +E  E Q  E E Q    E E Q  E E E E   +E  E Q  E E Q    E E Q  E E E E
|-----------------|----------------|-----------------|----------------|
|-----------------|----------------|-----------------|----------------|
|-(0)-0-0--0-0-0--|-0-0-0--0-0-0-2-|-(2)-2-2--2-2-2--|-2-2-2--2-2-2-0-|
|-(2)-2-2--2-2-2--|-2-2-2--2-2-2-2-|-(2)-2-2--2-2-2--|-2-2-2--2-2-2-2-|
|-(3)-3-3--3-3-3--|-3-3-3--3-3-3-0-|-(0)-0-0--0-0-0--|-0-0-0--0-0-0-3-|
|-----------------|----------------|-----------------|----------------|
|
| +E  E Q  E E Q    E E Q  E E E E   +E  E Q  E E Q    E E Q  E E E E
|-------3------3--|-----3--------0-|-------0------0--|-----0--------3-|
|-------3------3--|-----3--------x-|-------x------x--|-----x--------3-|
|-(0)-0-0--0-0-0--|-0-0-0--0-0-0-2-|-(2)-2-2--2-2-2--|-2-2-2--2-2-2-0-|
|-(2)-2-2--2-2-2--|-2-2-2--2-2-2-2-|-(2)-2-2--2-2-2--|-2-2-2--2-2-2-2-|
|-(3)-3-3--3-3-3--|-3-3-3--3-3-3-0-|-(0)-0-0--0-0-0--|-0-0-0--0-0-0-3-|
|-----------------|----------------|-----------------|----------------|


                                 D5
  +E  E Q  E E Q    E E Q  E E E E   +E  E E E +E  E E E   +E  E E E E E E E
|-----------------|----------------|---------------------|-------------------|
|-----------------|----------------|---------------------|-------------------|
|-(0)-0-0--0-0-0--|-0-0-0--0-0-0-7-|-(7)-7-x-7-(7)-7-x-7-|-(7)-7-7-7-7-7-7-7-|
|-(2)-2-2--2-2-2--|-2-2-2--2-2-2-7-|-(7)-7-x-7-(7)-7-x-7-|-(7)-7-7-7-7-7-7-7-|
|-(3)-3-3--3-3-3--|-3-3-3--3-3-3-5-|-(5)-5-x-5-(5)-5-x-5-|-(5)-5-5-5-5-5-5-5-|
|-----------------|----------------|---------------------|-------------------|
|
| +E  E Q  E E Q    E E Q  E E E E   +E  E E E +E  E E E   +E  E E E E E E E
|-------3------3--|-----3----------|---------------------|-------------------|
|-------3------3--|-----3----------|---------------------|-------------------|
|-(0)-0-0--0-0-0--|-0-0-0--0-0-0-7-|-(7)-7-x-7-(7)-7-x-7-|-(7)-7-7-7-7-7-7-7-|
|-(2)-2-2--2-2-2--|-2-2-2--2-2-2-7-|-(7)-7-x-7-(7)-7-x-7-|-(7)-7-7-7-7-7-7-7-|
|-(3)-3-3--3-3-3--|-3-3-3--3-3-3-5-|-(5)-5-x-5-(5)-5-x-5-|-(5)-5-5-5-5-5-5-5-|
|-----------------|----------------|---------------------|-------------------|


   Chorus
    G5          C5                      G5          C5
    E E E E E E Q    +E  E Q  E E E E   E E E E E E Q    +E  E Q  E E E E
||-----------------|------------------|----------------|-------------------|
||o----------------|------------------|----------------|-------------------|
||--------------5--|-(5)-5-5--5-5-5---|-------------5--|-(5)-5-5--5-5-5----|
||--5-5-5-5-5---5--|-(5)-5-5--5-5-5-0-|-5-5-5-5-5---5--|-(5)-5-5--5-5-5-0--|
||o-5-5-5-5-5---3--|-(3)-3-3--3-3-3-0-|-5-5-5-5-5---3--|-(3)-3-3--3-3-3-0--|
||--3-3-3-3-3------|------------------|-3-3-3-3-3------|-------------------|
|
|   E E E E E E Q    +E  E Q  E E E E   E E E E E E Q    +E  E Q  E E E E
||-----------------|------------------|----------------|-------------------|
||o----------------|------------------|----------------|-------------------|
||--------------5--|-(5)-5-5--5-5-5-5-|-------------5--|-(5)-5-5--5-5-5-5--|
||--5-5-5-5-5---5--|-(5)-5-5--5-5-5-5-|-5-5-5-5-5---5--|-(5)-5-5--5-5-5-5--|
||o-5-5-5-5-5---3--|-(3)-3-3--3-3-3-3-|-5-5-5-5-5---3--|-(3)-3-3--3-3-3-3--|
||--3-3-3-3-3------|------------------|-3-3-3-3-3------|-------------------|


  A5          C5
  E E E E E E Q    +E  E Q  E E E E
|----------------|------------------|
|----------------|------------------|
|-2-2-2-2-2---5--|-(5)-5-5--5-5-5---|
|-2-2-2-2-2---5--|-(5)-5-5--5-5-5-0-|
|-0-0-0-0-0---3--|-(3)-3-3--3-3-3-0-|
|----------------|------------------|
|
| E E E E E E Q    +E  E Q  E E E E
|----------------|------------------|
|----------------|------------------|
|-2-2-2-2-2---5--|-(5)-5-5--5-5-5-5-|
|-2-2-2-2-2---5--|-(5)-5-5--5-5-5-5-|
|-0-0-0-0-0---3--|-(3)-3-3--3-3-3-3-|
|----------------|------------------|


  A5      B5        C5
  E E  E  E +E  E E E   +E  E E E E E E E
|---------------------|--------------------||
|---------------------|-------------------o||
|------5----------5---|-------5-------5----||
|---2-----------5-----|-----5---5---5---5--||
|-0-------2-(2)-----3-|-(3)-------3-------o||
|---------------------|--------------------||
|
| Q   +E  H         E   +W
|---------------------|--------------------||
|---------------------|-------------------o||
|---------------------|--------------------||
|-2---(2)-4---------5-|-(5)----------------||
|-0---(0)-2---------3-|-(3)---------------o||
|---------------------|--------------------||


                                            Bridge
  A5      B5        C5                       E5
  E E  E  E +E  E E E   +E  E E E E E E E    E E E E E Q.     E E E E E Q.
|---------------------|-------------------||----------------|----------------|
|---------------------|-------------------||----------------|----------------|
|------5----------5---|-------5-------5---||----------------|----------------|
|---2-----------5-----|-----5---5---5---5-||-2-2-2-2-2------|---2-2-2-2------|
|-0-------2-(2)-----3-|-(3)-------3-------||-2-2-2-2-2------|---2-2-2-2------|
|---------------------|-------------------||-0-0-0-0-0------|---0-0-0-0------|
|
| Q   +E  H         E   +W                   E E E E E Q.     E E E E E Q.
|---------------------|-------------------||----------------|----------------|
|---------------------|-------------------||----------------|----------------|
|---------------------|-------------------||----------------|----------------|
|-2---(2)-4---------5-|-(5)---------------||-2-2-2-2-2------|---2-2-2-2------|
|-0---(0)-2---------3-|-(3)---------------||-2-2-2-2-2------|---2-2-2-2------|
|---------------------|-------------------||-0-0-0-0-0------|---0-0-0-0------|


  D5                                E5
  Gtrs I, II
  E E E E E Q.     E E E E E Q.     E E E E E Q.     E E E E E Q.
|----------------|----------------|----------------|----------------|
|----------------|----------------|----------------|----------------|
|-7-7-7-7-7------|---7-7-7-7------|----------------|----------------|
|-7-7-7-7-7------|---7-7-7-7------|-2-2-2-2-2------|---2-2-2-2------|
|-5-5-5-5-5------|---5-5-5-5------|-2-2-2-2-2------|---2-2-2-2------|
|----------------|----------------|-0-0-0-0-0------|---0-0-0-0------|


  D5                                E5
  Gtr I
  E E E E E Q.     E E E E E Q.     E E E E E E  E E   E E E E E E  E  E
|----------------|----------------|------------------|-------------------|
|----------------|----------------|------------------|-------------------|
|-7-7-7-7-7------|---7-7-7-7------|------------------|-------------------|
|-7-7-7-7-7------|---7-7-7-7------|------------------|-------------------|
|-5-5-5-5-5------|---5-5-5-5------|-7-7-7-7-7-7--7-7-|-7-7-7-7-7-9--9-10-|
|----------------|----------------|------------------|-------------------|
|
| Gtr II
| E E E E E Q.     E E E E E Q.     E E E E E Q.       E E E E E Q.
|----------------|----------------|------------------|-------------------|
|----------------|----------------|------------------|-------------------|
|-7-7-7-7-7------|---7-7-7-7------|------------------|-------------------|
|-7-7-7-7-7------|---7-7-7-7------|-2-2-2-2-2--------|---2-2-2-2---------|
|-5-5-5-5-5------|---5-5-5-5------|-2-2-2-2-2--------|---2-2-2-2---------|
|----------------|----------------|-0-0-0-0-0--------|---0-0-0-0---------|


  D5                                     E5
  E E E E E E  E E   E E E E E E  E  E   E E E E E E  E E   E E E E E E  E  E
|------------------|-------------------|------------------|-------------------|
|------------------|-------------------|------------------|-------------------|
|------------------|-------------------|------------------|-------------------|
|------------------|-------------------|------------------|-------------------|
|-5-5-5-5-5-5--5-5-|-5-5-5-5-5-7--9-10-|-7-7-7-7-7-7--7-7-|-7-7-7-7-7-9--9-10-|
|------------------|-------------------|------------------|-------------------|
|
| E E E E E Q.       E E E E E Q.        E E E E E Q.       E E E E E Q.
|------------------|-------------------|------------------|-------------------|
|------------------|-------------------|------------------|-------------------|
|-7-7-7-7-7--------|---7-7-7-7---------|------------------|-------------------|
|-7-7-7-7-7--------|---7-7-7-7---------|-2-2-2-2-2--------|---2-2-2-2---------|
|-5-5-5-5-5--------|---5-5-5-5---------|-2-2-2-2-2--------|---2-2-2-2---------|
|------------------|-------------------|-0-0-0-0-0--------|---0-0-0-0---------|


                                    Chorus
  D5                                 G5          C5
  E E E E E Q.     E E E E E Q.      E E E E E E Q    +E  E Q  E E E E
|----------------|----------------||----------------|------------------|
|----------------|----------------||----------------|------------------|
|----------------|----------------||-------------5--|-(5)-5-5--5-5-5---|
|----------------|----------------||-5-5-5-5-5---5--|-(5)-5-5--5-5-5-0-|
|-5-5-5-5-5------|---5-5-5-5------||-5-5-5-5-5---3--|-(3)-3-3--3-3-3-0-|
|----------------|----------------||-3-3-3-3-3------|------------------|
|
| E E E E E Q.     E E E E E Q.      W                 W
|----------------|----------------||----------------|------------------|
|----------------|----------------||----------------|------------------|
|-7-7-7-7-7------|---7-7-7-7------||----------------|------------------|
|-7-7-7-7-7------|---7-7-7-7------||----------------|------------------|
|-5-5-5-5-5------|---5-5-5-5------||----------------|------------------|
|----------------|----------------||----------------|------------------|


  G5           C5                      A5          C5
  E  E E E E E Q    +E  E Q  E E E E   E E E E E E Q    +E  E Q  E E E E
|-----------------|------------------|----------------|------------------|
|-----------------|------------------|----------------|------------------|
|--------------5--|-(5)-5-5--5-5-5---|-2-2-2-2-2---5--|-(5)-5-5--5-5-5---|
|-5--5-5-5-5---5--|-(5)-5-5--5-5-5-0-|-2-2-2-2-2---5--|-(5)-5-5--5-5-5-0-|
|-5--5-5-5-5---3--|-(3)-3-3--3-3-3-0-|-0-0-0-0-0---3--|-(3)-3-3--3-3-3-0-|
|-3--3-3-3-3------|------------------|----------------|------------------|
|
| H.           Q    +E  E Q  E E E E   E E E E E E Q    +E  E Q  E E E E
|-----------------|------------------|----------------|------------------|
|-----------------|------------------|----------------|------------------|
|--------------5--|-(5)-5-5--5-5-5-5-|-2-2-2-2-2---5--|-(5)-5-5--5-5-5-5-|
|--------------5--|-(5)-5-5--5-5-5-5-|-2-2-2-2-2---5--|-(5)-5-5--5-5-5-5-|
|--------------3--|-(3)-3-3--3-3-3-3-|-0-0-0-0-0---3--|-(3)-3-3--3-3-3-3-|
|-----------------|------------------|----------------|------------------|


  A5      B5        C5                      G5          C5
  E E  E  E +E  E E E   +E  E E E E E E E   E E E E E E Q    +E  E Q  E E E E
|---------------------|-------------------|----------------|------------------|
|---------------------|-------------------|----------------|------------------|
|------5----------5---|-------5-------5---|-------------5--|-(5)-5-5--5-5-5---|
|---2-----------5-----|-----5---5---5---5-|-5-5-5-5-5---5--|-(5)-5-5--5-5-5-0-|
|-0-------2-(2)-----3-|-(3)-------3-------|-5-5-5-5-5---3--|-(3)-3-3--3-3-3-0-|
|---------------------|-------------------|-3-3-3-3-3------|------------------|
|
| Q   +E  H         E   +W                  E E E E E E Q    +E  E Q  E E E E
|---------------------|-------------------|----------------|------------------|
|---------------------|-------------------|----------------|------------------|
|---------------------|-------------------|-------------5--|-(5)-5-5--5-5-5-5-|
|-2---(2)-4---------5-|-(5)---------------|-5-5-5-5-5---5--|-(5)-5-5--5-5-5-5-|
|-0---(0)-2---------3-|-(3)---------------|-5-5-5-5-5---3--|-(3)-3-3--3-3-3-3-|
|---------------------|-------------------|-3-3-3-3-3------|------------------|


  G5          C5                      A5          C5
  E E E E E E Q    +E  E Q  E E E E   E E E E E E Q    +E  E Q  E E E E
|----------------|------------------|----------------|------------------|
|----------------|------------------|----------------|------------------|
|-------------5--|-(5)-5-5--5-5-5---|-2-2-2-2-2---5--|-(5)-5-5--5-5-5---|
|-5-5-5-5-5---5--|-(5)-5-5--5-5-5-0-|-2-2-2-2-2---5--|-(5)-5-5--5-5-5-0-|
|-5-5-5-5-5---3--|-(3)-3-3--3-3-3-0-|-0-0-0-0-0---3--|-(3)-3-3--3-3-3-0-|
|-3-3-3-3-3------|------------------|----------------|------------------|
|
| E E E E E E Q    +E  E Q  E E E E   E E E E E E Q    +E  E Q  E E E E
|----------------|------------------|----------------|------------------|
|----------------|------------------|----------------|------------------|
|-------------5--|-(5)-5-5--5-5-5-5-|-2-2-2-2-2---5--|-(5)-5-5--5-5-5-5-|
|-5-5-5-5-5---5--|-(5)-5-5--5-5-5-5-|-2-2-2-2-2---5--|-(5)-5-5--5-5-5-5-|
|-5-5-5-5-5---3--|-(3)-3-3--3-3-3-3-|-0-0-0-0-0---3--|-(3)-3-3--3-3-3-3-|
|-3-3-3-3-3------|------------------|----------------|------------------|


  A5      B5        C5
  E E  E  E +E  E E E   +E  E E E E E E E
|---------------------|-------------------||
|---------------------|-------------------||
|------5----------5---|-------5-------5---||
|---2-----------5-----|-----5---5---5---5-||
|-0-------2-(2)-----3-|-(3)-------3-------||
|---------------------|-------------------||
|
| Q   +E  H         E   +W
|---------------------|-------------------||
|---------------------|-------------------||
|---------------------|-------------------||
|-2---(2)-4---------5-|-(5)---------------||
|-0---(0)-2---------3-|-(3)---------------||
|---------------------|-------------------||


 Outro
  A5      B5        C5
  E E  E  E +E  E E E   +E  E E E E E E E
|---------------------|-------------------|
|---------------------|-------------------|
|------5----------5---|-------5-------5---|
|---2-----------5-----|-----5---5---5---5-|
|-0-------2-(2)-----3-|-(3)-------3-------|
|---------------------|-------------------|
|
| Q   +E  H         E   +W
|---------------------|-------------------|
|---------------------|-------------------|
|---------------------|-------------------|
|-2---(2)-4---------5-|-(5)---------------|
|-0---(0)-2---------3-|-(3)---------------|
|---------------------|-------------------|


  G5          C5                      A5      B5        C5
  E E E E E E Q    +E  E Q  E E E E   E E  E  E +E  E E E   +W
|----------------|------------------|---------------------|--------*|
|----------------|------------------|---------------------|--------*|
|-------------5--|-(5)-5-5--5-5-5---|------5----------5---|--------*|
|-5-5-5-5-5---5--|-(5)-5-5--5-5-5-0-|---2-----------5---5-|-(5)----*|
|-5-5-5-5-5---3--|-(3)-3-3--3-3-3-0-|-0-------2-(2)-----3-|-(3)----*|
|-3-3-3-3-3------|------------------|---------------------|--------*|
|
| W                 W                 Q   +E  H         E   +W
|----------------|------------------|---------------------|--------*|
|----------------|------------------|---------------------|--------*|
|----------------|------------------|---------------------|--------*|
|----------------|------------------|-2---(2)-4---------5-|-(5)----*|
|----------------|------------------|-0---(0)-2---------3-|-(3)----*|
|----------------|------------------|---------------------|--------*|
Comments