New Found Glory - Vegas Chords & Tabs

 

Vegas Chords & Tabs

New Found Glory Chords & Tabs

Version: 2 Type: Tab 0 ratings
1 star 2 stars 3 stars 4 stars 5 stars
comments

Vegas Tab

New Found Glory,Vegas.
 Tabbed by Jack B,vbopus@aol.com.
  
--------------------------------------------------
--------------------------------------------------
------------------------6-6-----------------------
----666-77----666-77----6-6-7-7-------------------
----666-77----666-77----4-4-7-7-------------------
-00-444/55-00-444/55-00-----5-5-------------------

Main guitar riff.  It does a neat little up-up-down picking to get that sound, so try that out, and listen to the music to get the feel of it.
[ Tab from: http://www.guitartabs.cc/tabs/n/new_found_glory/vegas_tab_ver_2.html ]
-------------------------------------------------
-------------------------------------------------
-------------------------------------------------
-22/7\\66/7\\44/7\\66/7\\44--------------------------
-22/7\\66/7\\44/7\\66/7\\44--------------------------
-00/5\\44/5\\22/5\\44/5\\22--------------------------

Cool part.  You don't really need to slide, but it helps to give an idea of how it's played


-------------------------------------------------
----------------10-10----------------------------
-8h9999-8h9999--------11-11----------------------
-------------------------------------------------  X2
-------------------------------------------------
-------------------------------------------------
Guitar 2 solo... played two times per run and twice in the song, with an odd picking that DOESN'T sound like Litt.
(Listen to the song to get this all down)
 
:: Ultimate Guitar Archive :: 
http://www.ultimate-guitar.com 



Comments