New Found Glory - Understatement Chords & Tabs

 

Understatement Chords & Tabs

New Found Glory Chords & Tabs

Version: 2 Type: Tab 0 ratings
1 star 2 stars 3 stars 4 stars 5 stars
comments

Understatement Tab

This is an easy song to play, as long as you can play ;)
*=Palm Mute

Intro. (Repeat as needed)
e--------------------------------
b--------------------------------
g--------------------------------
d-2---2-------2---2-------2---2--
a-2---2-------2---2-------2---2--
e-0-*-0-*-*-*-0-*-0-*-*-*-0-*-0--

Verse.(1)
"..I'm sick of smiling.."
e--------------------------------
b--------------------------------
g--------------------------------
d-2------------------------------
a-2------------------------------
E-0-**********-------------------

Verse.(2)
"..And so is my jaw.."
e-------------------------------
b-------------------------------
g-------------------------------
d-4-4-4-4--7-7-7-7--------------
a-4-4-4-4--7-7-7-7--------------
E-2-2-2-2--5-5-5-5--------------

Repeat Verse1 and Verse2 when needed.
[ Tab from: http://www.guitartabs.cc/tabs/n/new_found_glory/understatement_tab_ver_2.html ]
Verse.(3)
"..I wire these words together.."
e-------------------------------------
b-------------------------------------
g-------------------------------------
d-7-7-7-7--4-4-4-4--2-2-2-2--4-4-4-4--
a-7-7-7-7--4-4-4-4--2-2-2-2--4-4-4-4--
E-5-5-5-5--2-2-2-2--0-0-0-0--2-2-2-2--

Chorus.
"..But your getting worse.."
(Theres a part in the song, the same as the chorus)
e-----------------------------------
b-----------------------------------
g-----------------------------------
d-2--2--4--4--7--7--9--9------------
a-2--2--4--4--7--7--9--9------------
E-0--0--2--2--5--5--7--7------------

Interlude.
(You'll know what it is, when you play it)
e-------------------------------------------
b-------------------------------------------
g-------------------------------------------
d---------2---------2---------4---------4---
a---------2---------2---------4---------4---
E-***-*-*-0-***-*-*-0-***-*-*-2-***-*-*-2---

Thats it, just listen to the song and get the right timing. Theres 
parts that you need to repeat, so again just listen to the song.
Comments