New Found Glory - Understatement Chords & Tabs

 

Understatement Chords & Tabs

New Found Glory Chords & Tabs

Version: 11 Type: Tab 0 ratings
1 star 2 stars 3 stars 4 stars 5 stars
comments

Understatement Tab

   
#---------------------------------PLEASE NOTE----------------------------------#
#This file is the author's own work and represents their interpretation of the #
#song. You may only use this file for private study, scholarship, or research. #
#------------------------------------------------------------------------------#
Title: Understatement
Artist: New Found Glory
Album: Sticks And Stones

Instrument: 6 String Guitar

Tabbed by: Mark Brown (markusbrownuus2@hotmail.com)

Tuning: Standard (E A D G B E)

Very good song, the other version was a bass tab which was pretty disapointing
for you people s this is guitar version.  Enjoy

Intro
Gtrs 1&2 dist
E|---------------------------------------------||
B|---------------------------------------------||
G|---------------------------------------------||
D|-2-x-2-x-x-2-x-2-x-x-2-x-2-x-x-2-x-2-x-x-2---||
A|-2-x-2-x-x-2-x-2-x-x-2-x-2-x-x-2-x-2-x-x-2---||
E|-0-x-0-x-x-0-x-0-x-x-0-x-0-x-x-0-x-0-x-x-0---||

Gtr 1 w/phaser
p.m----------------|
E|---------------------------------||
B|---------------------------------||
G|---------------------------------||
D|---------------------------------||
A|-2-2-2-2-2-2-2-2-----------------||
E|-0-0-0-0-0-0-0-0-----------------||

Verse
Gtrs 1&2 dist
p.m-------------------------------|
E|----------------------------------------------------------------------||
B|----------------------------------------------------------------------||
G|----------------------------------------------------------------------||
D|----------------------------------4-4-4-4-4-4-4-4-x-7-7-7-7-7-7-7-7--2||
A|-2-2-2-2-2-2-2-2-2-2-2-2-2-2-2-2--4-4-4-4-4-4-4-4-x-7-7-7-7-7-7-7-7--2||
E|-0-0-0-0-0-0-0-0-0-0-0-0-0-0-0-0--2-2-2-2-2-2-2-2-x-5-5-5-5-5-5-5-5--0||

Pre-Chorus
Gtrs 1&2  x3
E|--------------------------------------------------||
B|--------------------------------------------------||
G|--------------------------------------------------||
D|-11-11-11-11--9--9--9--9--7--7--7--7--9--9--9--9--||
A|-11-11-11-11--9--9--9--9--7--7--7--7--9--9--9--9--||
E|--9--9--9--9--7--7--7--7--5--5--5--5--7--7--7--7--||

E|---------------------------------------||
B|---------------------------------------||
G|---------------------------------------||
D|-11-11-11-11--9--9--9--9--7----9--9----||
A|-11-11-11-11--9--9--9--9--7----9--9----||
E|--9--9--9--9--7--7--7--7--5----7--7----||

Chorus
Gtrs 1&2
E|------------------------------------------||
B|------------------------------------------||
G|------------------------------------------||
D|-2--2-2---4--4-4-4-4--7--7-7--9--9-9-9-9--||
A|-2--2-2---4--4-4-4-4--7--7-7--9--9-9-9-9--||
E|-0--0-0---2--2-2-2-2--5--5-5--7--7-7-7-7--||

Gtr 1 
p.m----------------|
E|---------------------------------||
B|---------------------------------||
G|---------------------------------||
D|---------------------------------||
A|-2-2-2-2-2-2-2-2-----------------||
E|-0-0-0-0-0-0-0-0-----------------||
[ Tab from: http://www.guitartabs.cc/tabs/n/new_found_glory/understatement_tab_ver_11.html ]
Verse
Gtrs 1&2 dist
p.m-------------------------------|
E|----------------------------------------------------------------------||
B|----------------------------------------------------------------------||
G|----------------------------------------------------------------------||
D|----------------------------------4-4-4-4-4-4-4-4-x-7-7-7-7-7-7-7-7--2||
A|-2-2-2-2-2-2-2-2-2-2-2-2-2-2-2-2--4-4-4-4-4-4-4-4-x-7-7-7-7-7-7-7-7--2||
E|-0-0-0-0-0-0-0-0-0-0-0-0-0-0-0-0--2-2-2-2-2-2-2-2-x-5-5-5-5-5-5-5-5--0||

Pre-Chorus
Gtrs 1&2  x3
E|--------------------------------------------------||
B|--------------------------------------------------||
G|--------------------------------------------------||
D|-11-11-11-11--9--9--9--9--7--7--7--7--9--9--9--9--||
A|-11-11-11-11--9--9--9--9--7--7--7--7--9--9--9--9--||
E|--9--9--9--9--7--7--7--7--5--5--5--5--7--7--7--7--||

E|---------------------------------------||
B|---------------------------------------||
G|---------------------------------------||
D|-11-11-11-11--9--9--9--9--7----9--9----||
A|-11-11-11-11--9--9--9--9--7----9--9----||
E|--9--9--9--9--7--7--7--7--5----7--7----||

Chorus
Gtrs 1&2
E|------------------------------------------||
B|------------------------------------------||
G|------------------------------------------||
D|-2--2-2---4--4-4-4-4--7--7-7--9--9-9-9-9--||
A|-2--2-2---4--4-4-4-4--7--7-7--9--9-9-9-9--||
E|-0--0-0---2--2-2-2-2--5--5-5--7--7-7-7-7--||

E|----------------------------||
B|----------------------------||
G|----------------------------||
D|-11--x-x--7------9---9------||
A|-11--x-x--7------9---9------||
E|--9--x-x--5------7---7------||

Bridge
Gtrs 1&2
p.m---------|   p.m---------|  p.m--------|   p.m-------|
E|-------------------------------------------------------------||
B|-------------------------------------------------------------||
G|-------------------------------------------------------------||
D|------------2--------------4--------------7-------------9--9-||
A|-2-2-2-2-2--2---4-4-4-4-4--4---7-7-7-7-7--7--7-7-7-7-7--9--9-||
E|-0-0-0-0-0--0---2-2-2-2-2--2---5-5-5-5-5--5--5-5-5-5-5--7--7-||

Riff(after bridge)
Gtr 1 Clean
E|---------------------------------||
B|---------------------------------||
G|---------------------------------||
D|-2--2-2--4--4-4--7--7-7--9--9-9--||
A|-2--2-2--4--4-4--7--7-7--9--9-9--||
E|-0--0-0--2--2-2--5--5-5--7--7-7--||

Gtr 1&2
E|---------------------------------||
B|---------------------------------||
G|---------------------------------||
D|-2--2-2--4--4-4--7--7-7--9--9-9--||
A|-2--2-2--4--4-4--7--7-7--9--9-9--||
E|-0--0-0--2--2-2--5--5-5--7--7-7--||

Chorus
Gtrs 1&2
E|------------------------------------------||
B|------------------------------------------||
G|------------------------------------------||
D|-2--2-2---4--4-4-4-4--7--7-7--9--9-9-9-9--||
A|-2--2-2---4--4-4-4-4--7--7-7--9--9-9-9-9--||
E|-0--0-0---2--2-2-2-2--5--5-5--7--7-7-7-7--||

E|----------------------------||
B|----------------------------||
G|----------------------------||
D|-11--x-x--7------9---9------||
A|-11--x-x--7------9---9------||
E|--9--x-x--5------7---7------||

Outro
Gtrs 1&2
p.m-----------|
E|-----------------||
B|-----------------||
G|-----------------||
D|--------------2--||
A|-2-2-2-2-2-2--2--||
E|-0-0-0-0-0-0--0--||
Comments