New Found Glory - Understatement Chords & Tabs

 

Understatement Chords & Tabs

New Found Glory Chords & Tabs

Version: 10 Type: Tab 0 ratings
1 star 2 stars 3 stars 4 stars 5 stars
comments

Understatement Tab

I dont care what anyone says New Found Glory rules!

 Dropped D tunning
 
 x - blank out
 ~ - let ring

 Intro
 ---------------------------------------------------------
 ---------------------------------------------------------
 --------------------------------------------------------
 -2-2-x-x-x-x-2-2-x-x-x-x-2-2-x-x-x-x-2-2-x-x-x-x-2-------
 -2-2-x-x-x-x-2-2-x-x-x-x-2-2-x-x-x-x-2-2-x-x-x-x-2-------
 -2-2-x-x-x-x-2-2-x-x-x-x-2-2-x-x-x-x-2-2-x-x-x-x-2-------
 
 Verse 
 ---------------------------------------------------------
 ---------------------------------------------------------
 ---------------------------------------------------------
 -2-x-x-x-x-x-x-x-x-x-x-x-x-x-x-x-x-4-4-4-4-4-4-4-4-------
 -2-x-x-x-x-x-x-x-x-x-x-x-x-x-x-x-x-4-4-4-4-4-4-4-4-------
 -2-x-x-x-x-x-x-x-x-x-x-x-x-x-x-x-x-4-4-4-4-4-4-4-4-------

                         
 ---------------------------------------------------------
 ---------------------------------------------------------
 ---------------------------------------------------------
 -7-7-7-7-7-7-7-7-----------------------------------------
 -7-7-7-7-7-7-7-7-----------------------------------------
 -7-7-7-7-7-7-7-7-----------------------------------------
 
 Pre Chorus 
 ---------------------------------------------------------
 ---------------------------------------------------------
 ---------------------------------------------------------
 -11-11-11-11-9-9-9-9-7-7-7-7-9-9-9-9-11-11-11-11---------
 -11-11-11-11-9-9-9-9-7-7-7-7-9-9-9-9-11-11-11-11---------
 -11-11-11-11-9-9-9-9-7-7-7-7-9-9-9-9-11-11-11-11---------

 
 ---------------------------------------------------------
 ---------------------------------------------------------
 ---------------------------------------------------------
 -9-9-9-9-7-7-7-7 9-x-x-x-x-x-x--11-11-11-11-9-9-9-9------
 -9-9-9-9-7-7-7-7-9-x-x-x-x-x-x--11-11-11-11-9-9-9-9------
 -9-9-9-9-7-7-7-7-9-x-x-x-x-x-x--11-11-11-11-9-9-9-9------

 ---------------------------------------------------------
 ---------------------------------------------------------
 ---------------------------------------------------------
 -7-7-7-7-9-9-9-9-11-11-11-11-9-9-9-9-7----9-9------------
 -7-7-7-7-9-9-9-9-11-11-11-11-9-9-9-9-7----9-9------------
 -7-7-7-7-9-9-9-9-11-11-11-11-9-9-9-9-7----9-9------------
[ Tab from: http://www.guitartabs.cc/tabs/n/new_found_glory/understatement_tab_ver_10.html ]
 Chorus x3    (time it right)
 ---------------------------------------------------------
 ---------------------------------------------------------
 ---------------------------------------------------------
 -2-2-4-4-4-4-4-7-7-9-9-9-9-9-----------------------------
 -2-2-4-4-4-4-4-7-7-9-9-9-9-9-----------------------------
 -2-2-4-4-4-4-4-7-7-9-9-9-9-9-----------------------------

 4th time through Chorus to end it...
 ---------------------------------------------------------
 ---------------------------------------------------------
 ---------------------------------------------------------
 -2-2-4-4-4-4-4-7-7-9-9-9-9-9-11~----7-7--7-9-9-7---------
 -2-2-4-4-4-4-4-7-7-9-9-9-9-9-11~----7-7--7-9-9-7---------
 -2-2-4-4-4-4-4-7-7-9-9-9-9-9-11~----7-7--7-9-9-7---------

 Solo/Bridge 
 --------------------------------------------------------------
 --------------------------------------------------------------
 --------------------------------------------------------------
 -x-x--x-x-x-2---x-x--x-x-x-4-4---x-x--x-x-x-7--x-x--x-x-x-9-9-
 -x-x--x-x-x-2---x-x--x-x-x-4-4---x-x--x-x-x-7--x-x--x-x-x-9-9-
 -x-x--x-x-x-2---x-x--x-x-x-4-4---x-x--x-x-x-7--x-x--x-x-x-9-9-

 Bridge 2 x3 (clean)
 ---------------------------------------------------------
 ---------------------------------------------------------
 ---------------------------------------------------------
 -2-2-4-4-4-4-4-7-7-9-9-9-9-9-----------------------------
 -2-2-4-4-4-4-4-7-7-9-9-9-9-9-----------------------------
 -2-2-4-4-4-4-4-7-7-9-9-9-9-9-----------------------------

 4th time through Bridge to end it... distortion at 11th fret
 ---------------------------------------------------------
 ---------------------------------------------------------
 ---------------------------------------------------------
 -2-2-4-4-4-4-4-7-7-9-9-9-9-9------11~--7-7--7-9-9-7------
 -2-2-4-4-4-4-4-7-7-9-9-9-9-9------11~--7-7--7-9-9-7------
 -2-2-4-4-4-4-4-7-7-9-9-9-9-9------11~--7-7--7-9-9-7------

 Intro 
 Verse x4
 Prechorus 
 Chorus x3
 Chorus ending 
 Verse x2
 Prechorus 
 Chorus x3
 Chorus ending
 Solo/Bridge x3
 Bridge 2 x3
 Bridge ending
 Chorus x6
 Chorus ending

 End with this
 -----------------
 -----------------
 -----------------
 -2-2--2-2-2--2~--
 -2-2--2-2-2--2~--
 -2-2--2-2-2--2~--

 Thats the whole song, ive noticed no one is writing new tabs for NFG's
 new cd!! some ones gotta help me, im working on Its Been A Summer, but 
 still i need some help.

 
Comments