New Found Glory - Truth Of My Youth Chords & Tabs

 

Truth Of My Youth Chords & Tabs

New Found Glory Chords & Tabs

Version: 4 Type: Tab 0 ratings
1 star 2 stars 3 stars 4 stars 5 stars
comments

Truth Of My Youth Tab

   
Tabbed by:GuitarMaster41
E-Mail:LukeMaster41@aol.com

Artist:New Found Glory
Album:Catalyst
Song:Truth Of My Youth

Tuning:EBGDAE

/ = SLIDE UP
\ = SLIDE DOWN
b = BEND
r = RELEASE
h = HAMMER ON
p = PULL OFF
. = PALM MUTE
+ = HARMONIC

Q = 152

--------------------
Intro:
--------------------

Guitar 1
E|---------|------------------|---------|------------------|
B|---------|------------------|---------|------------------|
G|-5--2--0-|-5--2--0----2-0---|-5--2--0-|-5--2--0----2-0---|
D|-3--3--3-|-3--3--3----3-3-3-|-3--3--3-|-3--3--3----3-3-3-|
A|---------|------------------|---------|------------------|
E|---------|------------------|---------|------------------|

Guitar 2
E|----------------------------|----------------------------|
B|----------------------------|----------------------------|
G|------------------------3-3-|------------------------3-3-|
D|------------------------3-3-|------------------------3-3-|
A|------------------------1-1-|------------------------1-1-|
E|----------------------------|----------------------------|

Guitar 1
E|---------|------------------|---------|------------------|
B|---------|------------------|---------|------------------|
G|-5--2--0-|-5--2--0----2-0---|-5--2--0-|-5--2--0----2-0---|
D|-3--3--3-|-3--3--3----3-3-3-|-3--3--3-|-3--3--3----3-3-3-|
A|---------|------------------|---------|------------------|
E|---------|------------------|---------|------------------|

Guitar 2
E|---------------------------|-------------------------|
B|---------------------------|-------------------------|
G|---------------------------|---------------------3-3-|
D|-3--x-3--x-3--x-3--x-x-x-x-|-3--x-3--x-3--x-x-x--3-3-|
A|-3--x-3--x-3--x-3--x-x-x-x-|-3--x-3--x-3--x-x-x--1-1-|
E|-1--x-1--x-1--x-1--x-x-x-x-|-1--x-1--x-1--x-x-x------|

Guitar 1
E|---------|------------------|---------|------------------|
B|---------|------------------|---------|------------------|
G|-5--2--0-|-5--2--0----2-0---|-5--2--0-|-5--2--0----2-0---|
D|-3--3--3-|-3--3--3----3-3-3-|-3--3--3-|-3--3--3----3-3-3-|
A|---------|------------------|---------|------------------|
E|---------|------------------|---------|------------------|

Guitar 2
E|---------------------------|-------------------------|
B|---------------------------|-------------------------|
G|---------------------------|---------------------3-3-|
D|-3--x-3--x-3--x-3--x-x-x-x-|-3--x-3--x-3--x-x-x--3-3-|
A|-3--x-3--x-3--x-3--x-x-x-x-|-3--x-3--x-3--x-x-x--1-1-|
E|-1--x-1--x-1--x-1--x-x-x-x-|-1--x-1--x-1--x-x-x------|

Guitar 1
E|---------|------------------|---------|------------------|
B|---------|------------------|---------|------------------|
G|-5--2--0-|-5--2--0----2-0---|-5--2--0-|-5--2--0----2-0---|
D|-3--3--3-|-3--3--3----3-3-3-|-3--3--3-|-3--3--3----3-3-3-|
A|---------|------------------|---------|------------------|
E|---------|------------------|---------|------------------|

Guitar 2
E|---------------------------|-------------------------|
B|---------------------------|-------------------------|
G|-5--5-5--5-5--5-5--x-x-x-x-|-5--5-5--5-5--5-x-x--3-3-|
D|-3--3-3--3-3--3-3--x-x-x-x-|-3--3-3--3-3--3-x-x--3-3-|
A|-5--5-5--5-5--5-5--x-x-x-x-|-5--5-5--5-5--5-x-x--1-1-|
E|---------------------------|-------------------------|

Guitar 1
E|---------|-------------------|
B|---------|-------------------|
G|-5--2--0-|-5---------------5-|
D|-3--3--3-|-3--3-3-3-3-3-3--3-|
A|---------|-------------------|
E|---------|-------------------|
                . . . . . .
Guitar 2
E|---------------------------|-------------------|
B|---------------------------|-------------------|
G|---------------------------|-3---------------3-|
D|-3--x-3--x-3--x-3--x-x-x-x-|-3---------------3-|
A|-3--x-3--x-3--x-3--x-x-x-x-|-1--1-1-1-1-1-1--1-|
E|-1--x-1--x-1--x-1--x-x-x-x-|-------------------|
                                  . . . . . .

--------------------
Verse:
--------------------

Guitars 1 & 2
E|-------------------------|-------------------------|
B|-------------------------|-------------------------|
G|-------------------------|---------------------3-3-|
D|-3--3-3--3-3--3-3--3-3-3-|-3--3-3--3-3--3-x-x--3-3-|
A|-3--3-3--3-3--3-3--3-3-3-|-3--3-3--3-3--3-x-x--1-1-|
E|-1--1-1--1-1--1-1--1-1-1-|-1--1-1--1-1--1-x-x------|

Guitars 1 & 2
E|-------------------------|-------------------------|
B|-------------------------|-------------------------|
G|-------------------------|---------------------3-3-|
D|-3--3-3--3-3--3-3--3-3-3-|-3--3-3--3-3--3-x-x--3-3-|
A|-3--3-3--3-3--3-3--3-3-3-|-3--3-3--3-3--3-x-x--1-1-|
E|-1--1-1--1-1--1-1--1-1-1-|-1--1-1--1-1--1-x-x------|

Guitars 1 & 2
E|---------------------------|-------------------------|
B|---------------------------|-------------------------|
G|-5--5-5--5-5--5-5--5-5-5-5-|-5--5-5--5-5--5-x-x--3-3-|
D|-3--3-3--3-3--3-3--3-3-3-3-|-3--3-3--3-3--3-x-x--3-3-|
A|-5--5-5--5-5--5-5--5-5-5-5-|-5--5-5--5-5--5-x-x--1-1-|
E|---------------------------|-------------------------|

Guitars 1 & 2
E|-------------------------|---------|
B|-------------------------|---------|
G|-------------------------|-3----3--|
D|-3--3-3--3-3--3-3--3-3-3-|-3----3--|
A|-3--3-3--3-3--3-3--3-3-3-|-1----1--|
E|-1--1-1--1-1--1-1--1-1-1-|---------|


--------------------
Interlude:
--------------------

Guitar 1
E|---------|------------------|---------|------------------|
B|---------|------------------|---------|------------------|
G|-5--2--0-|-5--2--0----2-0---|-5--2--0-|-5--2--0----2-0---|
D|-3--3--3-|-3--3--3----3-3-3-|-3--3--3-|-3--3--3----3-3-3-|
A|---------|------------------|---------|------------------|
E|---------|------------------|---------|------------------|

Guitar 2
E|---------------------------|-------------------------|
B|---------------------------|-------------------------|
G|---------------------------|---------------------3-3-|
D|-3--x-3--x-3--x-3--x-x-x-x-|-3--x-3--x-3--x-x-x--3-3-|
A|-3--x-3--x-3--x-3--x-x-x-x-|-3--x-3--x-3--x-x-x--1-1-|
E|-1--x-1--x-1--x-1--x-x-x-x-|-1--x-1--x-1--x-x-x------|

Guitar 1
E|---------|------------------|---------|------------------|
B|---------|------------------|---------|------------------|
G|-5--2--0-|-5--2--0----2-0---|-5--2--0-|-5--2--0----2-0---|
D|-3--3--3-|-3--3--3----3-3-3-|-3--3--3-|-3--3--3----3-3-3-|
A|---------|------------------|---------|------------------|
E|---------|------------------|---------|------------------|

Guitar 2
E|---------------------------|-------------------------|
B|---------------------------|-------------------------|
G|---------------------------|---------------------3-3-|
D|-3--x-3--x-3--x-3--x-x-x-x-|-3--x-3--x-3--x-x-x--3-3-|
A|-3--x-3--x-3--x-3--x-x-x-x-|-3--x-3--x-3--x-x-x--1-1-|
E|-1--x-1--x-1--x-1--x-x-x-x-|-1--x-1--x-1--x-x-x------|

Guitar 1
E|---------|------------------|---------|------------------|
B|---------|------------------|---------|------------------|
G|-5--2--0-|-5--2--0----2-0---|-5--2--0-|-5--2--0----2-0---|
D|-3--3--3-|-3--3--3----3-3-3-|-3--3--3-|-3--3--3----3-3-3-|
A|---------|------------------|---------|------------------|
E|---------|------------------|---------|------------------|

Guitar 2
E|---------------------------|-------------------------|
B|---------------------------|-------------------------|
G|-5--5-5--5-5--5-5--x-x-x-x-|-5--5-5--5-5--5-x-x--3-3-|
D|-3--3-3--3-3--3-3--x-x-x-x-|-3--3-3--3-3--3-x-x--3-3-|
A|-5--5-5--5-5--5-5--x-x-x-x-|-5--5-5--5-5--5-x-x--1-1-|
E|---------------------------|-------------------------|

Guitar 1
E|---------|-------------------|
B|---------|-------------------|
G|-5--2--0-|-5---------------5-|
D|-3--3--3-|-3--3-3-3-3-3-3--3-|
A|---------|-------------------|
E|---------|-------------------|
                . . . . . .
Guitar 2
E|---------------------------|-------------------|
B|---------------------------|-------------------|
G|---------------------------|-3---------------3-|
D|-3--x-3--x-3--x-3--x-x-x-x-|-3---------------3-|
A|-3--x-3--x-3--x-3--x-x-x-x-|-1--1-1-1-1-1-1--1-|
E|-1--x-1--x-1--x-1--x-x-x-x-|-------------------|
                                  . . . . . .

--------------------
Verse:
--------------------

Guitars 1 & 2
E|-------------------------|-------------------------|
B|-------------------------|-------------------------|
G|-------------------------|---------------------3-3-|
D|-3--3-3--3-3--3-3--3-3-3-|-3--3-3--3-3--3-x-x--3-3-|
A|-3--3-3--3-3--3-3--3-3-3-|-3--3-3--3-3--3-x-x--1-1-|
E|-1--1-1--1-1--1-1--1-1-1-|-1--1-1--1-1--1-x-x------|

Guitars 1 & 2
E|-------------------------|-------------------------|
B|-------------------------|-------------------------|
G|-------------------------|---------------------3-3-|
D|-3--3-3--3-3--3-3--3-3-3-|-3--3-3--3-3--3-x-x--3-3-|
A|-3--3-3--3-3--3-3--3-3-3-|-3--3-3--3-3--3-x-x--1-1-|
E|-1--1-1--1-1--1-1--1-1-1-|-1--1-1--1-1--1-x-x------|

Guitars 1 & 2
E|---------------------------|-------------------------|
B|---------------------------|-------------------------|
G|-5--5-5--5-5--5-5--5-5-5-5-|-5--5-5--5-5--5-x-x--3-3-|
D|-3--3-3--3-3--3-3--3-3-3-3-|-3--3-3--3-3--3-x-x--3-3-|
A|-5--5-5--5-5--5-5--5-5-5-5-|-5--5-5--5-5--5-x-x--1-1-|
E|---------------------------|-------------------------|

Guitars 1 & 2
E|-------------------------|---|
B|-------------------------|---|
G|-------------------------|-3-|
D|-3--3-3--3-3--3-3--3-3-3-|-3-|
A|-3--3-3--3-3--3-3--3-3-3-|-1-|
E|-1--1-1--1-1--1-1--1-1-1-|---|


--------------------
Pre-Chorus:
--------------------

Guitar 1
E|---------------------------|---------------------------|---------------------------|
B|---------------------------|---------------------------|---------------------------|
G|-5--5-5--5-5--5-5--5-5-5-5-|-5--5-5--5-5--5-5--5-5-5-5-|-3--3-3--3-3--3-3--3-3-3-3-|
D|-3--3-3--3-3--3-3--3-3-3-3-|-3--3-3--3-3--3-3--3-3-3-3-|-3--3-3--3-3--3-3--3-3-3-3-|
A|-5--5-5--5-5--5-5--5-5-5-5-|-3--3-3--3-3--3-3--3-3-3-3-|-1--1-1--1-1--1-1--1-1-1-1-|
E|---------------------------|---------------------------|---------------------------|

Guitar 2
E|---------------------------|---------------------------|---------------------------|
B|---------------------------|---------------------------|---------------------------|
G|-9--10--10-----------------|-9--10--12--10-------------|-9--10--10-----------------|
D|-x---x---x-----------------|-x---x---x---x-------------|-x---x---x-----------------|
A|-7---8---8-----------------|-7---8--10---8-------------|-7---8---8-----------------|
E|---------------------------|---------------------------|---------------------------|

Guitar 1
E|---------------------------|---------------------------|---------------------------|
B|---------------------------|---------------------------|---------------------------|
G|-3--3-3--3-3--3-3--3-3-3-3-|-5--5-5--5-5--5-5--5-5-5-5-|-5--5-5--5-5--5-5--5-5-5-5-|
D|-3--3-3--3-3--3-3--3-3-3-3-|-3--3-3--3-3--3-3--3-3-3-3-|-3--3-3--3-3--3-3--3-3-3-3-|
A|-1--1-1--1-1--1-1--1-1-1-1-|-5--5-5--5-5--5-5--5-5-5-5-|-3--3-3--3-3--3-3--3-3-3-3-|
E|---------------------------|---------------------------|---------------------------|
[ Tab from: http://www.guitartabs.cc/tabs/n/new_found_glory/truth_of_my_youth_tab_ver_4.html ]
Guitar 2
E|---------------------------|---------------------------|---------------------------|
B|---------------------------|---------------------------|---------------------------|
G|-/5--3--2--0---------------|-9--10--10-----------------|-9--10--12--10-------------|
D|---------------------------|-x---x---x-----------------|-x---x---x---x-------------|
A|---------------------------|-7---8---8-----------------|-7---8--10---8-------------|
E|---------------------------|---------------------------|---------------------------|

Guitar 1
E|---------------------------|---|
B|---------------------------|---|
G|-3--3-3--3-3--3-3--3-3-3-3-|-5-|
D|-3--3-3--3-3--3-3--3-3-3-3-|-5-|
A|-1--1-1--1-1--1-1--1-1-1-1-|-3-|
E|---------------------------|---|

Guitar 2
E|---------------------------|---|
B|---------------------------|---|
G|-9--10--10-----------------|-9-|
D|-x---x---x-----------------|-x-|
A|-7---8---8-----------------|-7-|
E|---------------------------|---|


--------------------
Chorus:
--------------------

Guitar 1
E|-----------------|-----------------|-----------------|-----------------|
B|-----------------|-----------------|-----------------|-----------------|
G|-----------------|-----------------|-3-3-3-3-3-3-3-3-|-3-3-3-3-3-3-3-3-|
D|-3-3-3-3-3-3-3-3-|-3-3-3-3-3-3-3-3-|-3-3-3-3-3-3-3-3-|-3-3-3-3-3-3-3-3-|
A|-3-3-3-3-3-3-3-3-|-3-3-3-3-3-3-3-3-|-1-1-1-1-1-1-1-1-|-1-1-1-1-1-1-1-1-|
E|-1-1-1-1-1-1-1-1-|-1-1-1-1-1-1-1-1-|-----------------|-----------------|

Guitar 2
E|-------------------------|----------------------|-----------------|------------------|
B|-------------------------|----------------------|-----------------|------------------|
G|-10-10-10-10-10-10-10-10-|-10-10-10-10--9-9-9-9-|-7-7-7-7-7-7-7-7-|-7-7-7-7--9-9-9-9-|
D|--x--x--x--x--x--x--x--x-|--x--x--x--x--x-x-x-x-|-x-x-x-x-x-x-x-x-|-x-x-x-x--x-x-x-x-|
A|--8--8--8--8--8--8--8--8-|--8--8--8--8--7-7-7-7-|-5-5-5-5-5-5-5-5-|-5-5-5-5--7-7-7-7-|
E|-------------------------|----------------------|-----------------|------------------|

Guitar 1
E|------------|------------|------------|-----------------|
B|------------|------------|------------|-----------------|
G|----------7-|----------5-|----------3-|-5-5-5-5-5-5-5-5-|
D|-7-7-7-7--x-|-5-5-5-5--x-|-3-3-3-3--x-|-5-5-5-5-5-5-5-5-|
A|-5-5-5-5--5-|-3-3-3-3--3-|-1-1-1-1--1-|-3-3-3-3-3-3-3-3-|
E|------------|------------|------------|-----------------|
   . . . .      . . . .      . . . .

Guitar 2
E|------------|------------|------------|-----------------|
B|------------|------------|------------|-----------------|
G|----------7-|----------5-|----------3-|-9-9-9-9-9-9-9-9-|
D|----------x-|----------x-|----------x-|-x-x-x-x-x-x-x-x-|
A|-5-5-5-5--5-|-3-3-3-3--3-|-1-1-1-1--1-|-7-7-7-7-7-7-7-7-|
E|------------|------------|------------|-----------------|
   . . . .      . . . .      . . . .

Guitar 1
E|-----------------|-----------------|-----------------|-----------------|
B|-----------------|-----------------|-----------------|-----------------|
G|-----------------|-----------------|-3-3-3-3-3-3-3-3-|-3-3-3-3-3-3-3-3-|
D|-3-3-3-3-3-3-3-3-|-3-3-3-3-3-3-3-3-|-3-3-3-3-3-3-3-3-|-3-3-3-3-3-3-3-3-|
A|-3-3-3-3-3-3-3-3-|-3-3-3-3-3-3-3-3-|-1-1-1-1-1-1-1-1-|-1-1-1-1-1-1-1-1-|
E|-1-1-1-1-1-1-1-1-|-1-1-1-1-1-1-1-1-|-----------------|-----------------|

Guitar 2
E|-------------------------|----------------------|-----------------|------------------|
B|-------------------------|----------------------|-----------------|------------------|
G|-10-10-10-10-10-10-10-10-|-10-10-10-10--9-9-9-9-|-7-7-7-7-7-7-7-7-|-7-7-7-7--9-9-9-9-|
D|--x--x--x--x--x--x--x--x-|--x--x--x--x--x-x-x-x-|-x-x-x-x-x-x-x-x-|-x-x-x-x--x-x-x-x-|
A|--8--8--8--8--8--8--8--8-|--8--8--8--8--7-7-7-7-|-5-5-5-5-5-5-5-5-|-5-5-5-5--7-7-7-7-|
E|-------------------------|----------------------|-----------------|------------------|

Guitar 1
E|------------|------------|------------|---|
B|------------|------------|------------|---|
G|----------7-|----------5-|----------3-|-5-|
D|-7-7-7-7--x-|-5-5-5-5--x-|-3-3-3-3--x-|-5-|
A|-5-5-5-5--5-|-3-3-3-3--3-|-1-1-1-1--1-|-3-|
E|------------|------------|------------|---|
   . . . .      . . . .      . . . .

Guitar 2
E|------------|------------|------------|---|
B|------------|------------|------------|---|
G|----------7-|----------9-|---------10-|-9-|
D|----------x-|----------x-|----------x-|-x-|
A|-5-5-5-5--5-|-7-7-7-7--7-|-8-8-8-8--8-|-7-|
E|------------|------------|------------|---|
   . . . .      . . . .      . . . .


--------------------
Interlude
--------------------


--------------------
Verse:
--------------------

Guitars 1 & 2 (Bass plays first by itself.)
E|----------------------------------------|
B|----------------------------------------|
G|----------------------------------------|
D|----------------------------------------|
A|----------------------------------------|
E|----------------------------------------|

Guitar 1
E|-17-|
B|--x-|
G|-14-|
D|----|
A|----|
E|----|

Guitar 2
E|----|
B|----|
G|----|
D|----|
A|----|
E|----|

Guitars 1 & 2
E|---------------------|
B|---------------------|
G|---------------------|
D|---------------------|
A|---------------------|
E|-x\------------------|
(Pickslide!)

Guitars 1 & 2
E|---------------------------|-------------------------|
B|---------------------------|-------------------------|
G|-5--5-5--5-5--5-5--5-5-5-5-|-5--5-5--5-5--5-x-x--3-3-|
D|-3--3-3--3-3--3-3--3-3-3-3-|-3--3-3--3-3--3-x-x--3-3-|
A|-5--5-5--5-5--5-5--5-5-5-5-|-5--5-5--5-5--5-x-x--1-1-|
E|---------------------------|-------------------------|

Guitars 1 & 2
E|-------------------------|---|
B|-------------------------|---|
G|-------------------------|-3-|
D|-3--3-3--3-3--3-3--3-3-3-|-3-|
A|-3--3-3--3-3--3-3--3-3-3-|-1-|
E|-1--1-1--1-1--1-1--1-1-1-|---|


--------------------
Pre-Chorus:
--------------------

Guitar 1
E|---------------------------|---------------------------|---------------------------|
B|---------------------------|---------------------------|---------------------------|
G|-5--5-5--5-5--5-5--5-5-5-5-|-5--5-5--5-5--5-5--5-5-5-5-|-3--3-3--3-3--3-3--3-3-3-3-|
D|-3--3-3--3-3--3-3--3-3-3-3-|-3--3-3--3-3--3-3--3-3-3-3-|-3--3-3--3-3--3-3--3-3-3-3-|
A|-5--5-5--5-5--5-5--5-5-5-5-|-3--3-3--3-3--3-3--3-3-3-3-|-1--1-1--1-1--1-1--1-1-1-1-|
E|---------------------------|---------------------------|---------------------------|

Guitar 2
E|---------------------------|---------------------------|---------------------------|
B|---------------------------|---------------------------|---------------------------|
G|-9--10--10-----------------|-9--10--12--10-------------|-9--10--10-----------------|
D|-x---x---x-----------------|-x---x---x---x-------------|-x---x---x-----------------|
A|-7---8---8-----------------|-7---8--10---8-------------|-7---8---8-----------------|
E|---------------------------|---------------------------|---------------------------|

Guitar 1
E|---------------------------|---------------------------|---------------------------|
B|---------------------------|---------------------------|---------------------------|
G|-3--3-3--3-3--3-3--3-3-3-3-|-5--5-5--5-5--5-5--5-5-5-5-|-5--5-5--5-5--5-5--5-5-5-5-|
D|-3--3-3--3-3--3-3--3-3-3-3-|-3--3-3--3-3--3-3--3-3-3-3-|-3--3-3--3-3--3-3--3-3-3-3-|
A|-1--1-1--1-1--1-1--1-1-1-1-|-5--5-5--5-5--5-5--5-5-5-5-|-3--3-3--3-3--3-3--3-3-3-3-|
E|---------------------------|---------------------------|---------------------------|

Guitar 2
E|---------------------------|---------------------------|---------------------------|
B|---------------------------|---------------------------|---------------------------|
G|-/5--3--2--0---------------|-9--10--10-----------------|-9--10--12--10-------------|
D|---------------------------|-x---x---x-----------------|-x---x---x---x-------------|
A|---------------------------|-7---8---8-----------------|-7---8--10---8-------------|
E|---------------------------|---------------------------|---------------------------|

Guitar 1
E|---------------------------|---|
B|---------------------------|---|
G|-3--3-3--3-3--3-3--3-3-3-3-|-5-|
D|-3--3-3--3-3--3-3--3-3-3-3-|-5-|
A|-1--1-1--1-1--1-1--1-1-1-1-|-3-|
E|---------------------------|---|

Guitar 2
E|---------------------------|---|
B|---------------------------|---|
G|-9--10--10-----------------|-9-|
D|-x---x---x-----------------|-x-|
A|-7---8---8-----------------|-7-|
E|---------------------------|---|

Guitar 1
E|---------------------------|---------------------------|---------------------------|
B|---------------------------|---------------------------|---------------------------|
G|-5--5-5--5-5--5-5--5-5-5-5-|-5--5-5--5-5--5-5--5-5-5-5-|-3--3-3--3-3--3-3--3-3-3-3-|
D|-3--3-3--3-3--3-3--3-3-3-3-|-3--3-3--3-3--3-3--3-3-3-3-|-3--3-3--3-3--3-3--3-3-3-3-|
A|-5--5-5--5-5--5-5--5-5-5-5-|-3--3-3--3-3--3-3--3-3-3-3-|-1--1-1--1-1--1-1--1-1-1-1-|
E|---------------------------|---------------------------|---------------------------|

Guitar 2
E|-------------------|-------------------|------8--------------|-8------------------------|
B|---5-6---5-6---5h6-|-----5-----5-6-5---|-------------10------|--------10-8-10-8h10p8----|
G|-7-----7-----7-----|-5-7---5-7-------7-|-9-10---9-10----9-10-|---9-10----------------10-|
D|-------------------|-------------------|---------------------|--------------------------|
A|-------------------|-------------------|---------------------|--------------------------|
E|-------------------|-------------------|---------------------|--------------------------|

Guitar 1
E|---------------------------|---------------------------|---------------------------|---|
B|---------------------------|---------------------------|---------------------------|---|
G|-5--5-5--5-5--5-5--5-5-5-5-|-5--5-5--5-5--5-5--5-5-5-5-|-3--3-3--3-3--3-3--3-3-3-3-|-5-|
D|-3--3-3--3-3--3-3--3-3-3-3-|-3--3-3--3-3--3-3--3-3-3-3-|-3--3-3--3-3--3-3--3-3-3-3-|-5-|
A|-5--5-5--5-5--5-5--5-5-5-5-|-3--3-3--3-3--3-3--3-3-3-3-|-1--1-1--1-1--1-1--1-1-1-1-|-3-|
E|---------------------------|---------------------------|---------------------------|---|

Guitar 2
E|-------------------|-------------------|------8--------------|-8-|
B|---5-6---5-6---5h6-|-----5-----5-6-5---|-------------10------|-8-|
G|-7-----7-----7-----|-5-7---5-7-------7-|-9-10---9-10----9-10-|---|
D|-------------------|-------------------|---------------------|---|
A|-------------------|-------------------|---------------------|---|
E|-------------------|-------------------|---------------------|---|


--------------------
Chorus
--------------------


--------------------
Outro:
--------------------

Guitar 1
E|---------|----------------------|---------|-------------------|
B|---------|----------------------|---------|-------------------|
G|-5--2--0-|-5--2--0----2--5b--5r-|-5--2--0-|-5---------------5-|
D|-3--3--3-|-3--3--3----3---------|-3--3--3-|-3--3-3-3-3-3-3--3-|
A|---------|----------------------|---------|-------------------|
E|---------|----------------------|---------|-------------------|
                                                 . . . . . .
Guitar 2
E|------------------------15b-15r-|-----------------------------|
B|--------------------------------|-----------------------------|
G|--------------------------------|-----------------------------|
D|--------------------------------|-----------------------------|
A|--------------------------------|-----------------------------|
E|--------------------------------|-----------------------------|
Comments