New Found Glory - Truth Of My Youth Chords & Tabs

 

Truth Of My Youth Chords & Tabs

New Found Glory Chords & Tabs

Version: 1 Type: Tab 0 ratings
1 star 2 stars 3 stars 4 stars 5 stars
comments

Truth Of My Youth Tab

I just got this album like 5 hours ago...this is the best song on the cd....i found out 
intro...or what i think is the intro..i'll figure out the rest and post it later.  I'm 
some one will get a good representation of the song and use what i have to help them.

Standard Tuning
[ Tab from: http://www.guitartabs.cc/tabs/n/new_found_glory/truth_of_my_youth_tab.html ]
Intro
--------------------------|
1010-8-1010-8--11-11/10---|
-9-9-9--9-9-9---x--x------|
-7-7-7--7-7-7---8--8-7----|
--------------------------|
--------------------------|

--------------------------|
1010-8-1010-8--11-11/10---|
-9-9-9--9-9-9---x--x------|
-7-7-7--7-7-7---8--8-7----|
--------------------------|
--------------------------|
Comments