New Found Glory - Truth Of My Youth Chords & Tabs

 

Truth Of My Youth Chords & Tabs

New Found Glory Chords & Tabs

Version: 1 Type: Bass Tab 0 ratings
1 star 2 stars 3 stars 4 stars 5 stars
comments

Truth Of My Youth Bass Tab

Song: Truth Of My Youth
Band: New Found Glory
Album: Catalyst (Track 4)
Bassist: Ian Grushka
Standard Tuning

(0:02)
G ---------------------------------|
D ---------------------------------|
A --1-1----------------------------|    X2
E ---------------------------------|

(0:06)
G ---------------------------------------------------------------------------------------|
D ---------------------------------------------------------------------------------------|
A -------------------1-1-------------------1-1------------------------1-1----------------|
E --1-1-1----1-1-1-1-------1-1-1----1-1-1-1--------3-3-3----3-3-3-3-------1-1-1----1---1-|

(0:18)
G ---------------------------------------------------------------------------------------|
D ---------------------------------------------------------------------------------------|
A -------------------1-1--------------------1-1-------------------- 1-1------------------|
E --1-1-1-11-1-1-1-1-------1-1-1-11-1-1-1-1--------3-3-3-33-3-3-3-3-------1-1-1-11-1---1-|

(0:31)
G ---------------------------------------------------------------------------------------|
D ---------------------------------------------------------------------------------------|
A -------------------1-1--------------------1-1---------------------1-1------------------|
E --1-1-1----1-1-1-1-------1-1-1----1-1-1-1--------3-3-3----3-3-3-3-------1-1-1----1---1-|

(0:43)
G ---------------------------------------------------------------------------------------|
D ---------------------------------------------------------------------------------------|
A -------------------1-1--------------------1-1--------------------- 1-1-----------------|
E --1-1-1-11-1-1-1-1-------1-1-1-11-1-1-1-1--------3-3-3-33-3-3-3-3-------1-1-1-11-1---1-|

(0:56)
G ---------------------------------------------------------------------------------------|
D ---------------------------------------------------------------------------------------|
A --3-3-3-333--5-5-5-555--1-1-1-111-1-1-1-111--3-3-3-333--5-5-5-555--1-1-1-111-3---------|
E ---------------------------------------------------------------------------------------|
[ Tab from: http://www.guitartabs.cc/tabs/n/new_found_glory/truth_of_my_youth_btab.html ]
(1:08)
G ---------------------------------------------------------------------------------------|
D ---------------------------------------------------------------------------------------|
A ----------------3333----------------3333---55555---33333---11111---3-------------------|X2
E --111111111111---------111111111111----------------------------------------------------|

(1:35)
G ---------------------------------|
D ---------------------------------|
A --1-1----------------------------|
E ---------------------------------|

(1:36)
G ---------------------------------------------------------------------------------------|
D ---------------------------------------------------------------------------------------|
A -------------------1-1---------------------1-1---------------------1-1-----------------|
E --1-1-1----1-1-1-1-------1-1-1----1-1-1-1--------3-3-3----3-3-3-3-------1-1-1----1---1-|

(1:45)
G ---------------------------------------------------------------------------------------|
D ---------------------------------------------------------------------------------------|
A ------------------ 1-1--------------------1-1-------------------- 1-1------------------|
E --1-1-1-11-1-1-1-1-------1-1-1-11-1-1-1-1--------3-3-3-33-3-3-3-3-------1-1-1-11-1---1-|

(1:58)
G ---------------------------------------------------------------------------------------|
D ---------------------------------------------------------------------------------------|
A --3-3-3-333--5-5-5-555--1-1-1-111-1-1-1-111--3-3-3-333--5-5-5-555--1-1-1-111-3---------|X2
E ---------------------------------------------------------------------------------------|

(2:22)
G ---------------------------------------------------------------------------------------|
D ---------------------------------------------------------------------------------------|
A ---------------3333-----------------3333---55555---33333---11111---3-------------------|X2
E --111111111111---------111111111111----------------------------------------------------|

(2:50)
G ---------------------------------|
D ---------------------------------|
A --1-1----------------------------|
E ---------------------------------|

(2:51)
G ---------------------------------------------------------------------------------------|
D ---------------------------------------------------------------------------------------|
A -------------------1-1--------------------1-1----------------------1-1-----------------|
E --1-1-1----1-1-1-1-------1-1-1----1-1-1-1--------3-3-3----3-3-3-3-------1-1-1----1---1-|
Comments