New Found Glory - This Disaster Chords & Tabs

 

This Disaster Chords & Tabs

New Found Glory Chords & Tabs

Version: 2 Type: Tab 0 ratings
1 star 2 stars 3 stars 4 stars 5 stars
comments

This Disaster Tab

Tabbed by:GuitarMaster41
E-Mail:LukeMaster41@aol.com

Artist:New Found Glory
Album:Catalyst
Song:This Disaster

Tuning:DADGBE

/ = SLIDE UP
\ = SLIDE DOWN
h = HAMMER ON
p = PULL OFF
. = PALM MUTE
+ = HARMONIC

Q = 75

--------------------
Intro:
--------------------

Guitar 1 
E|----------------------------------------|----------------------------------------|
B|----------------------------------------|----------------------------------------|
G|----------------------------------------|----------------------------------------|
D|----------------------------------------|----------------------------------------|
A|---9h10----9h10--7\5----5h7----5h7--4---|---9h10----9h10--7\5----5h7----5h7--4---|
D|-9-------9------------5------5--------7-|-9-------9------------5------5--------7-|
   .       .            .      .        .   .       .            .      .        .

Guitar 2 
E|----------------------------------------|----------------------------------------|
B|----------------------------------------|----------------------------------------|
G|----------------------------------------|----------------------------------------|
D|----------------------------------------|----------------------------------------|
A|----------------------------------------|----------------------------------------|
D|----------------------------------------|----------------------------------------|

Guitar 1 
E|----------------------------------------|----------------------------------------|
B|----------------------------------------|----------------------------------------|
G|----------------------------------------|----------------------------------------|
D|----------------------------------------|----------------------------------------|
A|---9h10----9h10--7\5----5h7----5h7--4---|---9h10----9h10--7\5----5h7----5h7--4---|
D|-9-------9------------5------5--------7-|-9-------9------------5------5--------7-|
   .       .            .      .        .   .       .            .      .        .

Guitar 2 (Listen to the song for timing on this part.)
E|----------------------------------------|----------------------------------------|
B|----------------------------------------|----------------------------------------|
G|----------------------------------------|----------------------------------------|
D|----------------------------------------|----------------------------------------|
A|-2--------------------------------------|-2--------------------------------------|
D|---------4-------5----2------7--------5-|---------4-------5----2------7--------5-|


--------------------
Verse:
--------------------

Guitar 1
E|-------------------------------------|-------------------------------------|
B|-------------------------------------|-------------------------------------|
G|-------------------------------------|-------------------------------------|
D|-9-9--7--5-5--7--9-9--7--5-5--5-5--7-|-9-9--7--5-5--7--9-9--7--5-5--5-5--7-|
A|-9-9--7--5-5--7--9-9--7--5-5--5-5--7-|-9-9--7--5-5--7--9-9--7--5-5--5-5--7-|
D|-9-9--7--5-5--7--9-9--7--5-5--5-5--7-|-9-9--7--5-5--7--9-9--7--5-5--5-5--7-|

Guitar 2
E|-----------------------------------------|-----------------------------------------|
B|-----------------------------------------|-----------------------------------------|
G|-----------------------------------------|-----------------------------------------|
D|-9-9--7--5-5--7--9-9--11--12-12--12-12-7-|-9-9--7--5-5--7--9-9--11--12-12--12-12-7-|
A|-x-x--x--x-x--x--x-x---x---x--x---x--x-x-|-x-x--x--x-x--x--x-x---x---x--x---x--x-x-|
D|-9-9--7--5-5--7--9-9--11--12-12--12-12-7-|-9-9--7--5-5--7--9-9--11--12-12--12-12-7-|

Guitar 1
E|-------------------------------------|--------------------------------|
B|-------------------------------------|--------------------------------|
G|-------------------------------------|--------------------------------|
D|-9-9--7--5-5--7--9-9--7--5-5--5-5--7-|-9-9--7--5-5--7--9-9--7--5-5--5-|
A|-9-9--7--5-5--7--9-9--7--5-5--5-5--7-|-9-9--7--5-5--7--9-9--7--5-5--5-|
D|-9-9--7--5-5--7--9-9--7--5-5--5-5--7-|-9-9--7--5-5--7--9-9--7--5-5--5-|

Guitar 2
E|-----------------------------------------|--------------------------------|
B|-----------------------------------------|--------------------------------|
G|-----------------------------------------|--------------------------------|
D|-9-9--7--5-5--7--9-9--11--12-12--12-12-7-|-9-9--7--5-5--7--9-9--7--5-5--5-|
A|-x-x--x--x-x--x--x-x---x---x--x---x--x-x-|-x-x--x--x-x--x--x-x--x--x-x--x-|
D|-9-9--7--5-5--7--9-9--11--12-12--12-12-7-|-9-9--7--5-5--7--9-9--7--5-5--5-|

Guitar 3 (Listen to the song for timing on when to play these lead parts.)
E|-----------------|-----------------|------------------|--------------|
B|-----------------|-----------------|------------------|----------7h8-|
G|-----------------|----------6--7h9-|------------------|--------------|
D|-----9p7---------|-----------------|-----9p7----------|--------------|
A|-9-7-----9p7-5-5-|-9-9-9-9---------|-9-7-----9p7--5-5-|-9-9-9-9------|
D|-----------------|-----------------|------------------|--------------|
   . .               . . . .           . .                . . . .


--------------------
Chorus:
--------------------

Guitar 1
E|----------------------------------|---------------------------------|
B|----------------------------------|---------------------------------|
G|----------------------------------|---------------------------------|
D|-0-0-0-0-0-0-0-0--5-5-5-5-5-5-5-5-|-7-7-7-7-7-7-7-7-7-7-7-7-7-7-7-7-|
A|-0-0-0-0-0-0-0-0--5-5-5-5-5-5-5-5-|-7-7-7-7-7-7-7-7-7-7-7-7-7-7-7-7-|
D|-0-0-0-0-0-0-0-0--5-5-5-5-5-5-5-5-|-7-7-7-7-7-7-7-7-7-7-7-7-7-7-7-7-|

Guitar 2
E|----------------------------------|-----------------------------------|
B|----------------------------------|-----------------------------------|
G|-7-7-7-7-7-7-7-7--7-7-7-7-7-7-7-7-|-9-9-9-9-9-9-9-9-9-9-9-9-9/12\11\9-|
D|-x-x-x-x-x-x-x-x--x-x-x-x-x-x-x-x-|-x-x-x-x-x-x-x-x-x-x-x-x-x---------|
A|-5-5-5-5-5-5-5-5--5-5-5-5-5-5-5-5-|-7-7-7-7-7-7-7-7-7-7-7-7-7/10\-9\7-|
D|----------------------------------|-----------------------------------|

Guitar 1
E|-----------------------------------|----------------------------------|
B|-----------------------------------|----------------------------------|
G|-----------------------------------|----------------------------------|
D|-0-0-0-0-0-0-0-0--5-5-5-5--4-4-4-4-|-2-2-2-2-2-2-2-2--7-7-7-7-7-7-7-7-|
A|-0-0-0-0-0-0-0-0--5-5-5-5--4-4-4-4-|-2-2-2-2-2-2-2-2--7-7-7-7-7-7-7-7-|
D|-0-0-0-0-0-0-0-0--5-5-5-5--4-4-4-4-|-2-2-2-2-2-2-2-2--7-7-7-7-7-7-7-7-|

Guitar 2
E|-------------------------------------------|------------------------------------|
B|-------------------------------------------|------------------------------------|
G|-7-7-7-7-7-7-7-7--12-12-12-12--11-11-11-11-|-9-9-9-9-9-9-9-9--------------------|
D|-x-x-x-x-x-x-x-x---x--x--x--x---x--x--x--x-|-x-x-x-x-x-x-x-x--7-7-7-7-7-7-7-7-7-|
A|-5-5-5-5-5-5-5-5--10-10-10-10---9--9--9--9-|-7-7-7-7-7-7-7-7--x-x-x-x-x-x-x-x-x-|
D|-------------------------------------------|------------------7-7-7-7-7-7-7-7-7-|


--------------------
Interlude:
--------------------

Guitar 1 
E|----------------------------------------|----------------------------------------|
B|----------------------------------------|----------------------------------------|
G|----------------------------------------|----------------------------------------|
D|----------------------------------------|----------------------------------------|
A|---9h10----9h10--7\5----5h7----5h7--4---|---9h10----9h10--7\5----5h7----5h7--4---|
D|-9-------9------------5------5--------7-|-9-------9------------5------5--------7-|
   .       .            .      .        .   .       .            .      .        .

Guitar 2 
E|----------------------------------------|----------------------------------------| 
B|----------------------------------------|----------------------------------------| 
G|----------------------------------------|----------------------------------------| 
D|----------------------------------------|----------------------------------------| 
A|-2--------------------------------------|-2--------------------------------------| 
D|---------4-------5----2------7--------5-|---------4-------5----2------7--------5-|

Guitar 1 
E|----------------------------------------|----------------------------------------|
B|----------------------------------------|----------------------------------------|
G|----------------------------------------|----------------------------------------|
D|----------------------------------------|----------------------------------------|
A|---9h10----9h10--7\5----5h7----5h7--4---|---9h10----9h10--7\5----5h7----5h7--4---|
D|-9-------9------------5------5--------7-|-9-------9------------5------5--------7-|
   .       .            .      .        .   .       .            .      .        .

Guitar 2 
E|----------------------------------------|----------------------------------------| 
B|----------------------------------------|----------------------------------------| 
G|----------------------------------------|----------------------------------------| 
D|----------------------------------------|----------------------------------------| 
A|-2--------------------------------------|-2--------------------------------------| 
D|---------4-------5----2------7--------5-|---------4-------5----2------7--------5-|


--------------------
Verse:
--------------------

Guitar 1
E|-------------------------------------|-------------------------------------|
B|-------------------------------------|-------------------------------------|
G|-------------------------------------|-------------------------------------|
D|-9-9--7--5-5--7--9-9--7--5-5--5-5--7-|-9-9--7--5-5--7--9-9--7--5-5--5-5--7-|
A|-9-9--7--5-5--7--9-9--7--5-5--5-5--7-|-9-9--7--5-5--7--9-9--7--5-5--5-5--7-|
D|-9-9--7--5-5--7--9-9--7--5-5--5-5--7-|-9-9--7--5-5--7--9-9--7--5-5--5-5--7-|

Guitar 2
E|-----------------------------------------|-----------------------------------------|
B|-----------------------------------------|-----------------------------------------|
G|-----------------------------------------|-----------------------------------------|
D|-9-9--7--5-5--7--9-9--11--12-12--12-12-7-|-9-9--7--5-5--7--9-9--11--12-12--12-12-7-|
A|-x-x--x--x-x--x--x-x---x---x--x---x--x-x-|-x-x--x--x-x--x--x-x---x---x--x---x--x-x-|
D|-9-9--7--5-5--7--9-9--11--12-12--12-12-7-|-9-9--7--5-5--7--9-9--11--12-12--12-12-7-|

Guitar 1
E|-------------------------------------|--------------------------------|
B|-------------------------------------|--------------------------------|
G|-------------------------------------|--------------------------------|
D|-9-9--7--5-5--7--9-9--7--5-5--5-5--7-|-9-9--7--5-5--7--9-9--7--5-5--5-|
A|-9-9--7--5-5--7--9-9--7--5-5--5-5--7-|-9-9--7--5-5--7--9-9--7--5-5--5-|
D|-9-9--7--5-5--7--9-9--7--5-5--5-5--7-|-9-9--7--5-5--7--9-9--7--5-5--5-|

Guitar 2
E|-----------------------------------------|--------------------------------|
B|-----------------------------------------|--------------------------------|
G|-----------------------------------------|--------------------------------|
D|-9-9--7--5-5--7--9-9--11--12-12--12-12-7-|-9-9--7--5-5--7--9-9--7--5-5--5-|
A|-x-x--x--x-x--x--x-x---x---x--x---x--x-x-|-x-x--x--x-x--x--x-x--x--x-x--x-|
D|-9-9--7--5-5--7--9-9--11--12-12--12-12-7-|-9-9--7--5-5--7--9-9--7--5-5--5-|

Guitar 3 (Listen to the song for timing on this part.)
E|-------------------------|------------------------|--------------------------------|
B|-------------------7-7-7-|------------------------|--------------------------------|
G|-------------------------|------------------------|--------------------------------|
D|-----9p7-----------------|-4-4-4-4h5p4------------|-----9p7------------------------|
A|-9-7-----9p7-5-5-5-------|-------------4-5-5--5-5-|-9-9-----9p7-5-5-7-9--10-7-9h10-|
D|-------------------------|------------------------|--------------------------------|
   . .         . . . + + +   . . .                    . .         . . . .

E|-------------------------|
B|-------------------------|
G|-------------------------|
D|-------------------------|
A|-9-9--9-9-9-7-9p7-5-5--5-|
D|-------------------------|


--------------------
Chorus:
--------------------
[ Tab from: http://www.guitartabs.cc/tabs/n/new_found_glory/this_disaster_tab_ver_2.html ]
Guitar 1
E|----------------------------------|---------------------------------|
B|----------------------------------|---------------------------------|
G|----------------------------------|---------------------------------|
D|-0-0-0-0-0-0-0-0--5-5-5-5-5-5-5-5-|-7-7-7-7-7-7-7-7-7-7-7-7-7-7-7-7-|
A|-0-0-0-0-0-0-0-0--5-5-5-5-5-5-5-5-|-7-7-7-7-7-7-7-7-7-7-7-7-7-7-7-7-|
D|-0-0-0-0-0-0-0-0--5-5-5-5-5-5-5-5-|-7-7-7-7-7-7-7-7-7-7-7-7-7-7-7-7-|

Guitar 2
E|----------------------------------|-----------------------------------|
B|----------------------------------|-----------------------------------|
G|-7-7-7-7-7-7-7-7--7-7-7-7-7-7-7-7-|-9-9-9-9-9-9-9-9-9-9-9-9-9/12\11\9-|
D|-x-x-x-x-x-x-x-x--x-x-x-x-x-x-x-x-|-x-x-x-x-x-x-x-x-x-x-x-x-x---------|
A|-5-5-5-5-5-5-5-5--5-5-5-5-5-5-5-5-|-7-7-7-7-7-7-7-7-7-7-7-7-7/10\-9\7-|
D|----------------------------------|-----------------------------------|

Guitar 1
E|-----------------------------------|----------------------------------|
B|-----------------------------------|----------------------------------|
G|-----------------------------------|----------------------------------|
D|-0-0-0-0-0-0-0-0--5-5-5-5--4-4-4-4-|-2-2-2-2-2-2-2-2--7-7-7-7-7-7-7-7-|
A|-0-0-0-0-0-0-0-0--5-5-5-5--4-4-4-4-|-2-2-2-2-2-2-2-2--7-7-7-7-7-7-7-7-|
D|-0-0-0-0-0-0-0-0--5-5-5-5--4-4-4-4-|-2-2-2-2-2-2-2-2--7-7-7-7-7-7-7-7-|

Guitar 2
E|-------------------------------------------|------------------------------------|
B|-------------------------------------------|------------------------------------|
G|-7-7-7-7-7-7-7-7--12-12-12-12--11-11-11-11-|-9-9-9-9-9-9-9-9--------------------|
D|-x-x-x-x-x-x-x-x---x--x--x--x---x--x--x--x-|-x-x-x-x-x-x-x-x--7-7-7-7-7-7-7-7-7-|
A|-5-5-5-5-5-5-5-5--10-10-10-10---9--9--9--9-|-7-7-7-7-7-7-7-7--x-x-x-x-x-x-x-x-x-|
D|-------------------------------------------|------------------7-7-7-7-7-7-7-7-7-|

Guitar 1
E|----------------------------------|---------------------------------|
B|----------------------------------|---------------------------------|
G|----------------------------------|---------------------------------|
D|-0-0-0-0-0-0-0-0--5-5-5-5-5-5-5-5-|-7-7-7-7-7-7-7-7-7-7-7-7-7-7-7-7-|
A|-0-0-0-0-0-0-0-0--5-5-5-5-5-5-5-5-|-7-7-7-7-7-7-7-7-7-7-7-7-7-7-7-7-|
D|-0-0-0-0-0-0-0-0--5-5-5-5-5-5-5-5-|-7-7-7-7-7-7-7-7-7-7-7-7-7-7-7-7-|

Guitar 2
E|----------------------------------|-----------------------------------|
B|----------------------------------|-----------------------------------|
G|-7-7-7-7-7-7-7-7--7-7-7-7-7-7-7-7-|-9-9-9-9-9-9-9-9-9-9-9-9-9/12\11\9-|
D|-x-x-x-x-x-x-x-x--x-x-x-x-x-x-x-x-|-x-x-x-x-x-x-x-x-x-x-x-x-x---------|
A|-5-5-5-5-5-5-5-5--5-5-5-5-5-5-5-5-|-7-7-7-7-7-7-7-7-7-7-7-7-7/10\-9\7-|
D|----------------------------------|-----------------------------------|

Guitar 3 (Play this part with a clean tone.)
E|-2-----2-----2-------0-------0---|-----0-----0-----0-----2-----0---|
B|---3-----3-----3---3---3---3---3-|---3---3-----3-----3-----3-----3-|
G|-----2-----2-----0-------0-------|-2-------2-----2-----2-----2-----|
D|---------------------------------|---------------------------------|
A|---------------------------------|---------------------------------|
D|---------------------------------|---------------------------------|

Guitar 1
E|-----------------------------------|----------------------------------|
B|-----------------------------------|----------------------------------|
G|-----------------------------------|----------------------------------|
D|-0-0-0-0-0-0-0-0--5-5-5-5--4-4-4-4-|-2-2-2-2-2-2-2-2--7-7-7-7-7-7-7-7-|
A|-0-0-0-0-0-0-0-0--5-5-5-5--4-4-4-4-|-2-2-2-2-2-2-2-2--7-7-7-7-7-7-7-7-|
D|-0-0-0-0-0-0-0-0--5-5-5-5--4-4-4-4-|-2-2-2-2-2-2-2-2--7-7-7-7-7-7-7-7-|

Guitar 2
E|-------------------------------------------|------------------------------------|
B|-------------------------------------------|------------------------------------|
G|-7-7-7-7-7-7-7-7--12-12-12-12--11-11-11-11-|-9-9-9-9-9-9-9-9--------------------|
D|-x-x-x-x-x-x-x-x---x--x--x--x---x--x--x--x-|-x-x-x-x-x-x-x-x--7-7-7-7-7-7-7-7-7-|
A|-5-5-5-5-5-5-5-5--10-10-10-10---9--9--9--9-|-7-7-7-7-7-7-7-7--x-x-x-x-x-x-x-x-x-|
D|-------------------------------------------|------------------7-7-7-7-7-7-7-7-7-|

Guitar 3
E|-2-----2-----2-------0-------0---|-----0-------0-------0---2-----0-|
B|---3-----3-----3---3---3---3---3-|---3---3---3---3---3---3---3-----|
G|-----2-----2-----0---------------|-----------------2-----------2---|
D|-------------------------4-------|-2-------2-----------------------|
A|---------------------------------|---------------------------------|
D|---------------------------------|---------------------------------|


--------------------
Interlude:
--------------------

Guitar 1
E|---------------------------------------------------|--------------|
B|---------------------------------------------------|--------------|
G|-4-4-4--4-4--4-4-4--4-4--4-4-4--4-4--4-4-4-4-4-----|--------------|
D|-----------------------------------------------3-3-|-9----9-7-7-7-|
A|---------------------------------------------------|-x----x-x-x-x-|
D|---------------------------------------------------|-9----9-9-9-9-|

Guitar 2 (Hold the note through the measure.)
E|---------------------------------------------------|--------------|
B|---------------------------------------------------|--------------|
G|---------------------------------------------------|--------------|
D|---------------------------------------------------|--------------|
A|---------------------------------------------------|--------------|
D|---------------------------------------------------|-9------------|

Guitar 1
E|-------------------|-------------------|--------------------------|
B|-------------------|-------------------|--------------------------|
G|-------------------|-------------------|--------------------------|
D|-9----9--9-9-7-7-7-|-9----9--9-9-7-7-7-|-9----9----9----9---------|
A|-x----x--x-x-x-x-x-|-x----x--x-x-x-x-x-|-x----x----x----x---------|
D|-9----9--9-9-9-9-9-|-9----9--9-9-9-9-9-|-9----9----9----9----0-/9\|

Guitar 2
E|-------------------|-------------------|--------------------------|
B|-------------------|-------------------|--------------------------|
G|-------------------|-------------------|--------------------------|
D|-------------------|-------------------|--------------------------|
A|-------------------|-------------------|--------------------------|
D|-9-----------------|-9-----------------|-9----9----9----9----9--9-|


--------------------
Bridge:
--------------------

Guitars 1 & 2 (Listen to song for timing on this.)
E|----------------------------|----------------------------|
B|----------------------------|----------------------------|
G|----------------------------|----------------------------|
D|-9----4----5----2----7----5-|-9----4----5----2----7----5-|
A|-9----4----5----2----7----5-|-9----4----5----2----7----5-|
D|-9----4----5----2----7----5-|-9----4----5----2----7----5-|

Guitar 1
E|----------------------------|-------------------------|
B|----------------------------|-------------------------|
G|----------------------------|-------------------------|
D|-9----4----5----2----7----5-|-9----4----5-5----5----5-|
A|-9----4----5----2----7----5-|-9----4----5-5----5----5-|
D|-9----4----5----2----7----5-|-9----4----5-5----5----5-|

Guitar 2
E|---------------------------------|-----------------------|
B|---------------------------------|-----------------------|
G|---------------------------------|-----------------------|
D|-----9-----------7-----7-----7-0-|-----9-----------------|
A|-9-7---7-5-4-5-5---4-4---0-0-----|-9-7---7-5-4-5-5--5--5-|
D|---------------------------------|-----------------------|
   . . . . . . . . . . . . . . . .   . . . . . . . .  .  .

Guitar 1
E|----------------------------------|---------------------------------|
B|----------------------------------|---------------------------------|
G|----------------------------------|---------------------------------|
D|-0-0-0-0-0-0-0-0--5-5-5-5-5-5-5-5-|-7-7-7-7-7-7-7-7-7-7-7-7-7-7-7-7-|
A|-0-0-0-0-0-0-0-0--5-5-5-5-5-5-5-5-|-7-7-7-7-7-7-7-7-7-7-7-7-7-7-7-7-|
D|-0-0-0-0-0-0-0-0--5-5-5-5-5-5-5-5-|-7-7-7-7-7-7-7-7-7-7-7-7-7-7-7-7-|

Guitar 2
E|----------------------------------|-----------------------------------|
B|----------------------------------|-----------------------------------|
G|-7-7-7-7-7-7-7-7--7-7-7-7-7-7-7-7-|-9-9-9-9-9-9-9-9-9-9-9-9-9/12\11\9-|
D|-x-x-x-x-x-x-x-x--x-x-x-x-x-x-x-x-|-x-x-x-x-x-x-x-x-x-x-x-x-x---------|
A|-5-5-5-5-5-5-5-5--5-5-5-5-5-5-5-5-|-7-7-7-7-7-7-7-7-7-7-7-7-7/10\-9\7-|
D|----------------------------------|-----------------------------------|

Guitar 1
E|-----------------------------------|----------------------------------|
B|-----------------------------------|----------------------------------|
G|-----------------------------------|----------------------------------|
D|-0-0-0-0-0-0-0-0--5-5-5-5--4-4-4-4-|-2-2-2-2-2-2-2-2--7-7-7-7-7-7-7-7-|
A|-0-0-0-0-0-0-0-0--5-5-5-5--4-4-4-4-|-2-2-2-2-2-2-2-2--7-7-7-7-7-7-7-7-|
D|-0-0-0-0-0-0-0-0--5-5-5-5--4-4-4-4-|-2-2-2-2-2-2-2-2--7-7-7-7-7-7-7-7-|

Guitar 2
E|-------------------------------------------|------------------------------------|
B|-------------------------------------------|------------------------------------|
G|-7-7-7-7-7-7-7-7--12-12-12-12--11-11-11-11-|-9-9-9-9-9-9-9-9--------------------|
D|-x-x-x-x-x-x-x-x---x--x--x--x---x--x--x--x-|-x-x-x-x-x-x-x-x--7-7-7-7-7-7-7-7-7-|
A|-5-5-5-5-5-5-5-5--10-10-10-10---9--9--9--9-|-7-7-7-7-7-7-7-7--x-x-x-x-x-x-x-x-x-|
D|-------------------------------------------|------------------7-7-7-7-7-7-7-7-7-|

Guitar 1
E|----------------------------------|---------------------------------|
B|----------------------------------|---------------------------------|
G|----------------------------------|---------------------------------|
D|-0-0-0-0-0-0-0-0--5-5-5-5-5-5-5-5-|-7-7-7-7-7-7-7-7-7-7-7-7-7-7-7-7-|
A|-0-0-0-0-0-0-0-0--5-5-5-5-5-5-5-5-|-7-7-7-7-7-7-7-7-7-7-7-7-7-7-7-7-|
D|-0-0-0-0-0-0-0-0--5-5-5-5-5-5-5-5-|-7-7-7-7-7-7-7-7-7-7-7-7-7-7-7-7-|

Guitar 2
E|----------------------------------|-----------------------------------|
B|----------------------------------|-----------------------------------|
G|-7-7-7-7-7-7-7-7--7-7-7-7-7-7-7-7-|-9-9-9-9-9-9-9-9-9-9-9-9-9/12\11\9-|
D|-x-x-x-x-x-x-x-x--x-x-x-x-x-x-x-x-|-x-x-x-x-x-x-x-x-x-x-x-x-x---------|
A|-5-5-5-5-5-5-5-5--5-5-5-5-5-5-5-5-|-7-7-7-7-7-7-7-7-7-7-7-7-7/10\-9\7-|
D|----------------------------------|-----------------------------------|

Guitar 3 (Play this part with a clean tone.)
E|-2-----2-----2-------0-------0---|-----0-----0-----0-----2-----0---|
B|---3-----3-----3---3---3---3---3-|---3---3-----3-----3-----3-----3-|
G|-----2-----2-----0-------0-------|-2-------2-----2-----2-----2-----|
D|---------------------------------|---------------------------------|
A|---------------------------------|---------------------------------|
D|---------------------------------|---------------------------------|

Guitar 1
E|-----------------------------------|----------------------------------|
B|-----------------------------------|----------------------------------|
G|-----------------------------------|----------------------------------|
D|-0-0-0-0-0-0-0-0--5-5-5-5--4-4-4-4-|-2-2-2-2-2-2-2-2--7-7-7-7-7-7-7-7-|
A|-0-0-0-0-0-0-0-0--5-5-5-5--4-4-4-4-|-2-2-2-2-2-2-2-2--7-7-7-7-7-7-7-7-|
D|-0-0-0-0-0-0-0-0--5-5-5-5--4-4-4-4-|-2-2-2-2-2-2-2-2--7-7-7-7-7-7-7-7-|

Guitar 2
E|-------------------------------------------|------------------------------------|
B|-------------------------------------------|------------------------------------|
G|-7-7-7-7-7-7-7-7--12-12-12-12--11-11-11-11-|-9-9-9-9-9-9-9-9--------------------|
D|-x-x-x-x-x-x-x-x---x--x--x--x---x--x--x--x-|-x-x-x-x-x-x-x-x--7-7-7-7-7-7-7-7-7-|
A|-5-5-5-5-5-5-5-5--10-10-10-10---9--9--9--9-|-7-7-7-7-7-7-7-7--x-x-x-x-x-x-x-x-x-|
D|-------------------------------------------|------------------7-7-7-7-7-7-7-7-7-|

Guitar 3
E|-2-----2-----2-------0-------0---|-----0-------0-------0---2-----0-|
B|---3-----3-----3---3---3---3---3-|---3---3---3---3---3---3---3-----|
G|-----2-----2-----0---------------|-----------------2-----------2---|
D|-------------------------4-------|-2-------2-----------------------|
A|---------------------------------|---------------------------------|
D|---------------------------------|---------------------------------|


--------------------
Outro:
--------------------

Guitars 1 & 2
E|----------------------------------------|------------------------|
B|----------------------------------------|------------------------|
G|----------------------------------------|------------------------|
D|----------------------------------------|------------------------|
A|---9h10----9h10--7\5----5h7----5h7--4---|---9h10----9h10--7\5--5-|
D|-9-------9------------5------5--------7-|-9-------9------------5-|
   .       .            .      .        .   .       .
Comments