New Found Glory - The Story So Far Acoustic Chords & Tabs

 

The Story So Far Acoustic Chords & Tabs

New Found Glory Chords & Tabs

Version: 2 Type: Tab 0 ratings
1 star 2 stars 3 stars 4 stars 5 stars
comments

The Story So Far Acoustic Tab

The Story So Far(Acoustic Version) - New Found Glory

Tabbed By: fLiP (www.geocities.com/lil_loserz/)


Verse
Guitar 1	Guitar 2	Both
e|-----------|	e|-----------|	e|-----------|
B|-----------|	B|-----------|	B|-----------|
G|------0----|	G|------0----|	G|-----------|
D|----2------|	D|--2-2------|	D|--x-5-5-5--|
A|--3--------|	A|--------3--|	A|--x-5-5-5--|
E|--------1--|	E|-----------|	E|--x-3-3-3--|

Hook
e|-------------------------------------------|
B|-------------------------------------------|
G|-------------------------------------------|
D|--7-7-7-7--x-10-10-10--x-10-10--5-5-5-5-5--|
A|--7-7-7-7--x-10-10-10--x-10-10--5-5-5-5-5--|
E|--5-5-5-5--x--8--8--8--x--8--8--3-3-3-3-3--|
3x

e|----------------------------------------------------|
B|----------------------------------------------------|
G|----------------------------------------------------|
D|--7-7-7-7--x-10-10-10--12-12-12-12-12-12-12-12--10--|
A|--7-7-7-7--x-10-10-10--12-12-12-12-12-12-12-12--10--|
E|--5-5-5-5--x--8--8--8---7--7--7--7--7--7--7--7---8--|
1x

Chorus
e|--------------------------------------------------|
B|--------------------------------------------------|
G|--------------------------------------------------|
D|--10-10-10-10-x-x-x--3-3--10-10-10-10-x-x-x--3-3--|
A|--10-10-10-10-x-x-x--3-3--10-10-10-10-x-x-x--3-3--|
E|---8--8--8--8-x-x-x--1-1---8--8--8--8-x-x-x--1-1--|

e|------------------------------------------|
B|------------------------------------------|
G|------------------------------------------|
D|--7-7-7-7-x-x-x--3-3--7-7-7-7-x-x-x--3-3--|
A|--7-7-7-7-x-x-x--3-3--7-7-7-7-x-x-x--3-3--|
E|--5-5-5-5-x-x-x--1-1--5-5-5-5-x-x-x--1-1--|
[ Tab from: http://www.guitartabs.cc/tabs/n/new_found_glory/the_story_so_far_acoustic_tab_ver_2.html ]
Solo
e|--------------------------------------------|
B|--------------------------------------------|
G|--------12-12-10-10-9-9-------------9----9--|
D|-----10-----------------10-12-10-12---12----|
A|--10----------------------------------------|
E|--------------------------------------------|

e|---------------------------------------------|
B|---------------------------------------------|
G|--------12-12-10-10-9-9-------------9--------|
D|-----10-----------------10-12-10-12---12-10--|
A|--10-----------------------------------------|
E|---------------------------------------------|

Bridge 1
Guitar 1		Guitar 2 
e|------------------|	e|-strumming is not---|
B|------------------|	B|-hard to figure out-|
G|------------------|	G|--------------------|
D|--10---9---7---9--|	D|----10---------7----|
A|--10---9---7---9--|	A|----10---------7----|
E|---8---7---5---7--|	E|-----8---------5----|

Bridge 2
Guitar 1
e|---------------|
B|---------------|
G|---------------|
D|--10-10-10--3--|
A|--10-10-10--3--|
E|---8--8--8--1--|

Verse (guitar 1) 10x
Verse (guitar 2) 4x (play after guitar 1 played verse 6x)
Verse (both) 1x
Hook (both guitars)1x
Chorus (both guitars) 2x
Verse (guitar 1) 6x
Verse (guitar 2) 2x (play after guitar 1 played verse 4x)
Verse (both) 1x
Hook (both guitars) 1x
Chorus (both guitars) 4x
Solo (guitar 2) 2x (play after guitar 1 played chorus 2x)
Bridge 1 (guitar 1) 2x
Bridge 1 (guitar 2) 1x (play after guitar 1 played bridge 1x)
Bridge 2 (guitar 1) 4x
Hook (both guitars) 1x
Chorus (both guitars) 4x
Solo (guitar 2) 2x (play after guitar 1 played chorus 2x)
Verse (guitar 1) 1x

Thatís about it!  Everything is in there except for the solo on the bridge 2 but
 everything else, good luck and have fun!
Comments