New Found Glory - Sucker Chords & Tabs

 

Sucker Chords & Tabs

New Found Glory Chords & Tabs

Version: 3 Type: Tab 0 ratings
1 star 2 stars 3 stars 4 stars 5 stars
comments

Sucker Tab

>-------------------------------------------------------------------------------
			     SUCKER - New Found Glory
-------------------------------------------------------------------------------

By: MarkHavoc
-------------------------------------------------------------------------------
You might want to tune down a half step, otherwise it sounds ok at standard
tuning

I made this tab for ONE guitarist, even though NFG has two, but it sounds 
really good if play it right and the timing is right

-------------------------------------------------------------------------------

\= Block strings then let go (figure out the timing by listening to the song)
~= Let string ring

Intro
e|---------------------------------------------------------------------------|
B|---------------------------------------------------------------------------|
G|---------------------------------------------------------------------------|
D|--77-\-77-\--------------77-\-77-\-----------------------------------------|
A|--55-\-55-\--10-9-7-5-~--55-\-55-\--10-9-7-5-~-----------------------------|
E|---------------------------------------------------------------------------|

Verse
e|---------------------------------------------------------------------------|
B|---------------------------------------------------------------------------|
G|---------------------------------------------------------------------------|
D|--77-\-77-\-------------77-\-77-\-------------77-\-77-\--------------------|
A|--55-\-55-\--55-\-55-\--55-\-55-\--55-\-55-\--55-\-55-\--55-\-55-\---------|
E|-------------33-\-33-\-------------33-\-33-\-------------33-\-33-\---------|

Verse cont.
e|---------------------------------------------------------------------------|
B|---------------------------------------------------------------------------|
G|---------------------------------------------------------------------------|
D|--77-\-77-\----------------------------------------------------------------|
A|--55-\-55-\--55-\-55-\-----------------------------------------------------|
E|-------------33-\-33-\-----------------------------------------------------|

Pre-Chorus (Music low, we're all alone...)
e|---------------------------------------------------------------------------|
B|---------------------------------------------------------------------------|
G|---------------------------------------------------------------------------|
D|--4-~--------4-~--------4-~------------------------------------------------|
A|--2-~--5-~---2-~--5-~---2-~--5-~--7-\-7-\-7-\-7-\--------------------------|
E|-------3-~--------3-~--------3-~--5-\-5-\-5-\-5-\--------------------------|
[ Tab from: http://www.guitartabs.cc/tabs/n/new_found_glory/sucker_tab_ver_3.html ]
Chorus (Tell me about your first kiss...)	
e|---------------------------------------------------------------------------|
B|---------------------------------------------------------------------------|
G|---------------------------------------------------------------------------|
D|--77----77----77----4-2---77----77----77----4-2----------------------------|
A|--55-5--55-5--55-5--2-0---55-5--55-5--55-5--2-0----------------------------|
E|-----3-----3-----3-----------3-----3-----3---------------------------------|

Chorus cont.
e|---------------------------------------------------------------------------|
B|---------------------------------------------------------------------------|
G|---------------------------------------------------------------------------|
D|--77----77----77----4-2---77----77----77----4-2----------------------------|
A|--55-5--55-5--55-5--2-0---55-5--55-5--55-5--2-0----------------------------|
E|-----3-----3-----3-----------3-----3-----3---------------------------------|

After-Chorus (I'm writing it down...)
e|---------------------------------------------------------------------------|
B|---------------------------------------------------------------------------|
G|---------------------------------------------------------------------------|
D|------7---------7----------------------------------------------------------|
A|--5-~-5-7---5-~-5-7--------------------------------------------------------|
E|--3-~---5---3-~---5--------------------------------------------------------|
[Wait 6 secs at ring]
  
Bridge (... and tell me to my face...)
e|---------------------------------------------------------------------------|
B|---------------------------------------------------------------------------|
G|---------------------------------------------------------------------------|
D|--7-~-------7-~-----------7------------------------------------------------|
A|--5-~-5-~---5-~-5-5-5-~---5-5----------------------------------------------|
E|------3-~-------3-2-3-~-----3----------------------------------------------|

After-Bridge (Music low, we're all alone...)
e|---------------------------------------------------------------------------|
B|---------------------------------------------------------------------------|
G|---------------------------------------------------------------------------|
D|--|4444--------4444--------4444-----|--------------------------------------|
A|--|2222-5555---2222-5555---2222-5555|--7-\-7-\-7-\-------------------------|
E|--|-----3333--------3333--------3333|--5-\-5-\-5-\-------------------------|
    |>>>>>>>>>>>>Palm Mute<<<<<<<<<<<<|

That's the song, use the order chart below to figure out where everything goes

Order:
Intro
Verse
Pre-Chorus
Chorus
After-Chorus
Intro
Verse
Pre-Chorus
Chorus
After-Chorus
Bridge
After-Bridge
Chorus
After-Chorus
Chorus


Questions? MarkHavoc@yahoo.com
===============================================================================
Comments